ISO-10303-21;
HEADER;
/****************************************************************
 * Generated by software with PDElib inside                    *
 * PDElib Version v51a, created Wed 07/06/2011                  *
 * ITI Transcendata (http://www.transcendata.com/)              *
 ****************************************************************/
FILE_DESCRIPTION((''),'2;1');
FILE_NAME('U:\\Paletti Norm\\Paletti Artikel\\SZ\\SZ0420V_A.stp','2013-08-23T12:21:43',('janine behrens'),(''),'Autodesk Inventor 2012','Autodesk Inventor 2012','');
FILE_SCHEMA(('AUTOMOTIVE_DESIGN { 1 0 10303 214 1 1 1 1 }'));
ENDSEC;
DATA;
#5=APPLICATION_CONTEXT('automotive design');
#6=APPLICATION_PROTOCOL_DEFINITION('International Standard','automotive_design',2001,#5);
#7=PRODUCT_CONTEXT('',#5,'mechanical');
#8=PRODUCT('SZ0420V_A','SZ0420V_A',$,(#7));
#9=PRODUCT_RELATED_PRODUCT_CATEGORY('part',$,(#8));
#10=PRODUCT_DEFINITION_FORMATION('',$,#8);
#11=PRODUCT_DEFINITION_CONTEXT('part definition',#5,'design');
#12=PRODUCT_DEFINITION('',$,#10,#11);
#18=(NAMED_UNIT(*)PLANE_ANGLE_UNIT()SI_UNIT($,.RADIAN.));
#19=DIMENSIONAL_EXPONENTS(0.0,0.0,0.0,0.0,0.0,0.0,0.0);
#20=PLANE_ANGLE_MEASURE_WITH_UNIT(PLANE_ANGLE_MEASURE(0.0174532925),#18);
#24=(CONVERSION_BASED_UNIT('DEGREE',#20)NAMED_UNIT(#19)PLANE_ANGLE_UNIT());
#28=(NAMED_UNIT(*)SI_UNIT($,.STERADIAN.)SOLID_ANGLE_UNIT());
#32=(LENGTH_UNIT()NAMED_UNIT(*)SI_UNIT(.MILLI.,.METRE.));
#34=UNCERTAINTY_MEASURE_WITH_UNIT(LENGTH_MEASURE(0.01),#32,'DISTANCE_ACCURACY_VALUE','');
#36=(GEOMETRIC_REPRESENTATION_CONTEXT(3)GLOBAL_UNCERTAINTY_ASSIGNED_CONTEXT((#34))GLOBAL_UNIT_ASSIGNED_CONTEXT((#24,#28,#32))REPRESENTATION_CONTEXT('None','None'));
#37=AXIS2_PLACEMENT_3D('',#38,#39,#40);
#38=CARTESIAN_POINT('',(0.0,0.0,0.0));
#39=DIRECTION('',(0.0,0.0,1.0));
#40=DIRECTION('',(1.0,0.0,0.0));
#41=SHAPE_REPRESENTATION('',(#37),#36);
#42=PRODUCT_DEFINITION_SHAPE('','',#12);
#43=SHAPE_DEFINITION_REPRESENTATION(#42,#41);
#49=(NAMED_UNIT(*)PLANE_ANGLE_UNIT()SI_UNIT($,.RADIAN.));
#50=DIMENSIONAL_EXPONENTS(0.0,0.0,0.0,0.0,0.0,0.0,0.0);
#51=PLANE_ANGLE_MEASURE_WITH_UNIT(PLANE_ANGLE_MEASURE(0.0174532925),#49);
#55=(CONVERSION_BASED_UNIT('DEGREE',#51)NAMED_UNIT(#50)PLANE_ANGLE_UNIT());
#59=(NAMED_UNIT(*)SI_UNIT($,.STERADIAN.)SOLID_ANGLE_UNIT());
#63=(LENGTH_UNIT()NAMED_UNIT(*)SI_UNIT(.MILLI.,.METRE.));
#65=UNCERTAINTY_MEASURE_WITH_UNIT(LENGTH_MEASURE(0.000001),#63,'DISTANCE_ACCURACY_VALUE','');
#67=(GEOMETRIC_REPRESENTATION_CONTEXT(3)GLOBAL_UNCERTAINTY_ASSIGNED_CONTEXT((#65))GLOBAL_UNIT_ASSIGNED_CONTEXT((#55,#59,#63))REPRESENTATION_CONTEXT('','3D'));
#68=CARTESIAN_POINT('',(48.955350311886043,-8.250000000000014,5.000000000000004));
#69=DIRECTION('',(0.0,1.0,0.0));
#70=DIRECTION('',(0.0,0.0,1.0));
#71=AXIS2_PLACEMENT_3D('',#68,#69,#70);
#72=PLANE('',#71);
#73=CARTESIAN_POINT('',(34.013783970619905,-8.250000000000014,-0.999999999999998));
#74=VERTEX_POINT('',#73);
#75=CARTESIAN_POINT('',(34.013783970619905,-8.250000000000014,-4.999999999999998));
#76=VERTEX_POINT('',#75);
#77=CARTESIAN_POINT('',(34.013783970619905,-8.250000000000014,-0.999999999999998));
#78=DIRECTION('',(0.0,0.0,-1.0));
#79=VECTOR('',#78,4.0);
#80=LINE('',#77,#79);
#81=EDGE_CURVE('',#74,#76,#80,.T.);
#82=ORIENTED_EDGE('',*,*,#81,.F.);
#83=CARTESIAN_POINT('',(19.879903867738161,-8.250000000000012,5.000000000000008));
#84=VERTEX_POINT('',#83);
#85=CARTESIAN_POINT('',(19.879903867738179,-8.250000000000012,5.000000000000004));
#86=CARTESIAN_POINT('',(25.261966430599973,-8.250000000000014,2.786764498950429));
#87=CARTESIAN_POINT('',(34.013783970619933,-8.250000000000014,-1.000000000000007));
#95=(BOUNDED_CURVE()B_SPLINE_CURVE(2,(#85,#86,#87),.UNSPECIFIED.,.F.,.U.)B_SPLINE_CURVE_WITH_KNOTS((3,3),(0.0,1.535483994777202),.UNSPECIFIED.)CURVE()GEOMETRIC_REPRESENTATION_ITEM()RATIONAL_B_SPLINE_CURVE((1.0,1.032809862845864,1.0))REPRESENTATION_ITEM(''));
#96=EDGE_CURVE('',#84,#74,#95,.T.);
#97=ORIENTED_EDGE('',*,*,#96,.F.);
#98=CARTESIAN_POINT('',(-19.879903867738161,-8.250000000000009,5.000000000000008));
#99=VERTEX_POINT('',#98);
#100=CARTESIAN_POINT('',(-19.879903867738168,-8.250000000000009,5.000000000000007));
#101=DIRECTION('',(1.0,0.0,0.0));
#102=VECTOR('',#101,39.759807735476329);
#103=LINE('',#100,#102);
#104=EDGE_CURVE('',#99,#84,#103,.T.);
#105=ORIENTED_EDGE('',*,*,#104,.F.);
#106=CARTESIAN_POINT('',(-34.013783970619905,-8.250000000000009,-0.999999999999998));
#107=VERTEX_POINT('',#106);
#108=CARTESIAN_POINT('',(-34.013783970619933,-8.250000000000009,-1.000000000000008));
#109=CARTESIAN_POINT('',(-25.261966430599699,-8.250000000000009,2.786764498950546));
#110=CARTESIAN_POINT('',(-19.879903867738179,-8.250000000000009,5.000000000000004));
#118=(BOUNDED_CURVE()B_SPLINE_CURVE(2,(#108,#109,#110),.UNSPECIFIED.,.F.,.U.)B_SPLINE_CURVE_WITH_KNOTS((3,3),(0.0,1.535483994777202),.UNSPECIFIED.)CURVE()GEOMETRIC_REPRESENTATION_ITEM()RATIONAL_B_SPLINE_CURVE((1.0,1.032809862845795,1.0))REPRESENTATION_ITEM(''));
#119=EDGE_CURVE('',#107,#99,#118,.T.);
#120=ORIENTED_EDGE('',*,*,#119,.F.);
#121=CARTESIAN_POINT('',(-34.013783970619905,-8.250000000000011,-4.999999999999998));
#122=VERTEX_POINT('',#121);
#123=CARTESIAN_POINT('',(-34.013783970619905,-8.250000000000011,-4.999999999999998));
#124=DIRECTION('',(0.0,0.0,1.0));
#125=VECTOR('',#124,4.0);
#126=LINE('',#123,#125);
#127=EDGE_CURVE('',#122,#107,#126,.T.);
#128=ORIENTED_EDGE('',*,*,#127,.F.);
#129=CARTESIAN_POINT('',(34.013783970619905,-8.250000000000016,-4.999999999999997));
#130=DIRECTION('',(-1.0,0.0,0.0));
#131=VECTOR('',#130,68.027567941239823);
#132=LINE('',#129,#131);
#133=EDGE_CURVE('',#76,#122,#132,.T.);
#134=ORIENTED_EDGE('',*,*,#133,.F.);
#135=EDGE_LOOP('',(#82,#97,#105,#120,#128,#134));
#136=FACE_OUTER_BOUND('',#135,.T.);
#137=ADVANCED_FACE('',(#136),#72,.F.);
#138=CARTESIAN_POINT('',(17.5,-1.110223E-015,-5.0));
#139=DIRECTION('',(0.0,0.0,-1.0));
#140=DIRECTION('',(-1.0,0.0,0.0));
#141=AXIS2_PLACEMENT_3D('',#138,#139,#140);
#142=PLANE('',#141);
#143=ORIENTED_EDGE('',*,*,#133,.T.);
#144=CARTESIAN_POINT('',(0.0,-1.110223E-015,-5.0));
#145=DIRECTION('',(0.0,0.0,-1.0));
#146=DIRECTION('',(1.0,0.0,0.0));
#147=AXIS2_PLACEMENT_3D('',#144,#145,#146);
#148=CIRCLE('',#147,35.0);
#149=EDGE_CURVE('',#122,#76,#148,.T.);
#150=ORIENTED_EDGE('',*,*,#149,.T.);
#151=EDGE_LOOP('',(#143,#150));
#152=FACE_OUTER_BOUND('',#151,.T.);
#153=CARTESIAN_POINT('',(24.904802279352865,14.378794300098768,-5.0));
#154=VERTEX_POINT('',#153);
#155=CARTESIAN_POINT('',(21.776458956554894,12.572644440563792,-5.0));
#156=DIRECTION('',(6.654219E-017,3.841815E-017,1.0));
#157=DIRECTION('',(-0.866025403784439,-0.5,7.683630E-017));
#158=AXIS2_PLACEMENT_3D('',#155,#156,#157);
#159=ELLIPSE('',#158,3.612299719069955,3.3);
#160=EDGE_CURVE('',#154,#154,#159,.T.);
#161=ORIENTED_EDGE('',*,*,#160,.T.);
#162=EDGE_LOOP('',(#161));
#163=FACE_BOUND('',#162,.T.);
#164=CARTESIAN_POINT('',(-24.904802279352857,14.378794300098786,-5.0));
#165=VERTEX_POINT('',#164);
#166=CARTESIAN_POINT('',(-21.776458956554883,12.572644440563806,-5.0));
#167=DIRECTION('',(-6.654219E-017,3.841815E-017,1.0));
#168=DIRECTION('',(0.866025403784439,-0.5,7.683630E-017));
#169=AXIS2_PLACEMENT_3D('',#166,#167,#168);
#170=ELLIPSE('',#169,3.612299719069955,3.3);
#171=EDGE_CURVE('',#165,#165,#170,.T.);
#172=ORIENTED_EDGE('',*,*,#171,.T.);
#173=EDGE_LOOP('',(#172));
#174=FACE_BOUND('',#173,.T.);
#175=CARTESIAN_POINT('',(10.750000000000009,4.25,-5.000000000000001));
#176=VERTEX_POINT('',#175);
#177=CARTESIAN_POINT('',(-10.749999999999993,4.249999999999997,-5.000000000000001));
#178=VERTEX_POINT('',#177);
#179=CARTESIAN_POINT('',(10.750000000000009,4.25,-5.000000000000001));
#180=DIRECTION('',(-1.0,0.0,0.0));
#181=VECTOR('',#180,21.500000000000004);
#182=LINE('',#179,#181);
#183=EDGE_CURVE('',#176,#178,#182,.T.);
#184=ORIENTED_EDGE('',*,*,#183,.T.);
#185=CARTESIAN_POINT('',(-10.749999999999993,-4.250000000000005,-4.999999999999999));
#186=VERTEX_POINT('',#185);
#187=CARTESIAN_POINT('',(-10.749999999999991,-4.092009E-015,-5.0));
#188=DIRECTION('',(0.0,0.0,1.0));
#189=DIRECTION('',(0.0,1.0,0.0));
#190=AXIS2_PLACEMENT_3D('',#187,#188,#189);
#191=CIRCLE('',#190,4.250000000000001);
#192=EDGE_CURVE('',#178,#186,#191,.T.);
#193=ORIENTED_EDGE('',*,*,#192,.T.);
#194=CARTESIAN_POINT('',(10.750000000000009,-4.25,-4.999999999999999));
#195=VERTEX_POINT('',#194);
#196=CARTESIAN_POINT('',(-10.749999999999993,-4.250000000000005,-4.999999999999999));
#197=DIRECTION('',(1.0,0.0,0.0));
#198=VECTOR('',#197,21.5);
#199=LINE('',#196,#198);
#200=EDGE_CURVE('',#186,#195,#199,.T.);
#201=ORIENTED_EDGE('',*,*,#200,.T.);
#202=CARTESIAN_POINT('',(10.750000000000011,7.613403E-016,-5.0));
#203=DIRECTION('',(0.0,0.0,1.0));
#204=DIRECTION('',(0.0,-1.0,0.0));
#205=AXIS2_PLACEMENT_3D('',#202,#203,#204);
#206=CIRCLE('',#205,4.25);
#207=EDGE_CURVE('',#195,#176,#206,.T.);
#208=ORIENTED_EDGE('',*,*,#207,.T.);
#209=EDGE_LOOP('',(#184,#193,#201,#208));
#210=FACE_BOUND('',#209,.T.);
#211=ADVANCED_FACE('',(#152,#163,#174,#210),#142,.T.);
#212=CARTESIAN_POINT('',(10.750000000000009,4.250000000000003,5.000000000000004));
#213=DIRECTION('',(0.0,1.0,0.0));
#214=DIRECTION('',(0.0,0.0,1.0));
#215=AXIS2_PLACEMENT_3D('',#212,#213,#214);
#216=PLANE('',#215);
#217=ORIENTED_EDGE('',*,*,#183,.F.);
#218=CARTESIAN_POINT('',(10.750000000000009,4.250000000000003,5.000000000000004));
#219=VERTEX_POINT('',#218);
#220=CARTESIAN_POINT('',(10.750000000000009,4.250000000000003,5.000000000000004));
#221=DIRECTION('',(0.0,0.0,-1.0));
#222=VECTOR('',#221,10.000000000000004);
#223=LINE('',#220,#222);
#224=EDGE_CURVE('',#219,#176,#223,.T.);
#225=ORIENTED_EDGE('',*,*,#224,.F.);
#226=CARTESIAN_POINT('',(-10.749999999999993,4.249999999999999,5.000000000000004));
#227=VERTEX_POINT('',#226);
#228=CARTESIAN_POINT('',(-10.749999999999995,4.249999999999999,5.000000000000004));
#229=DIRECTION('',(1.0,0.0,0.0));
#230=VECTOR('',#229,21.500000000000004);
#231=LINE('',#228,#230);
#232=EDGE_CURVE('',#227,#219,#231,.T.);
#233=ORIENTED_EDGE('',*,*,#232,.F.);
#234=CARTESIAN_POINT('',(-10.749999999999993,4.249999999999999,5.000000000000004));
#235=DIRECTION('',(0.0,0.0,-1.0));
#236=VECTOR('',#235,10.000000000000004);
#237=LINE('',#234,#236);
#238=EDGE_CURVE('',#227,#178,#237,.T.);
#239=ORIENTED_EDGE('',*,*,#238,.T.);
#240=EDGE_LOOP('',(#217,#225,#233,#239));
#241=FACE_OUTER_BOUND('',#240,.T.);
#242=ADVANCED_FACE('',(#241),#216,.F.);
#243=CARTESIAN_POINT('',(-10.749999999999991,-1.871563E-015,5.000000000000004));
#244=DIRECTION('',(0.0,-2.220446E-016,-1.0));
#245=DIRECTION('',(0.0,1.0,0.0));
#246=AXIS2_PLACEMENT_3D('',#243,#244,#245);
#247=CYLINDRICAL_SURFACE('',#246,4.250000000000001);
#248=ORIENTED_EDGE('',*,*,#192,.F.);
#249=ORIENTED_EDGE('',*,*,#238,.F.);
#250=CARTESIAN_POINT('',(-10.749999999999993,-4.250000000000003,5.000000000000005));
#251=VERTEX_POINT('',#250);
#252=CARTESIAN_POINT('',(-10.749999999999991,-1.871563E-015,5.000000000000004));
#253=DIRECTION('',(0.0,0.0,-1.0));
#254=DIRECTION('',(0.0,1.0,0.0));
#255=AXIS2_PLACEMENT_3D('',#252,#253,#254);
#256=CIRCLE('',#255,4.250000000000001);
#257=EDGE_CURVE('',#251,#227,#256,.T.);
#258=ORIENTED_EDGE('',*,*,#257,.F.);
#259=CARTESIAN_POINT('',(-10.749999999999993,-4.250000000000003,5.000000000000005));
#260=DIRECTION('',(0.0,0.0,-1.0));
#261=VECTOR('',#260,10.000000000000004);
#262=LINE('',#259,#261);
#263=EDGE_CURVE('',#251,#186,#262,.T.);
#264=ORIENTED_EDGE('',*,*,#263,.T.);
#265=EDGE_LOOP('',(#248,#249,#258,#264));
#266=FACE_OUTER_BOUND('',#265,.T.);
#267=ADVANCED_FACE('',(#266),#247,.F.);
#268=CARTESIAN_POINT('',(-10.749999999999993,-4.250000000000003,5.000000000000005));
#269=DIRECTION('',(0.0,-1.0,0.0));
#270=DIRECTION('',(0.0,0.0,-1.0));
#271=AXIS2_PLACEMENT_3D('',#268,#269,#270);
#272=PLANE('',#271);
#273=ORIENTED_EDGE('',*,*,#200,.F.);
#274=ORIENTED_EDGE('',*,*,#263,.F.);
#275=CARTESIAN_POINT('',(10.750000000000009,-4.249999999999997,5.000000000000005));
#276=VERTEX_POINT('',#275);
#277=CARTESIAN_POINT('',(10.750000000000009,-4.249999999999997,5.000000000000005));
#278=DIRECTION('',(-1.0,0.0,0.0));
#279=VECTOR('',#278,21.5);
#280=LINE('',#277,#279);
#281=EDGE_CURVE('',#276,#251,#280,.T.);
#282=ORIENTED_EDGE('',*,*,#281,.F.);
#283=CARTESIAN_POINT('',(10.750000000000009,-4.249999999999997,5.000000000000005));
#284=DIRECTION('',(0.0,0.0,-1.0));
#285=VECTOR('',#284,10.000000000000004);
#286=LINE('',#283,#285);
#287=EDGE_CURVE('',#276,#195,#286,.T.);
#288=ORIENTED_EDGE('',*,*,#287,.T.);
#289=EDGE_LOOP('',(#273,#274,#282,#288));
#290=FACE_OUTER_BOUND('',#289,.T.);
#291=ADVANCED_FACE('',(#290),#272,.F.);
#292=CARTESIAN_POINT('',(10.750000000000011,2.981786E-015,5.000000000000004));
#293=DIRECTION('',(0.0,-2.220446E-016,-1.0));
#294=DIRECTION('',(0.0,-1.0,0.0));
#295=AXIS2_PLACEMENT_3D('',#292,#293,#294);
#296=CYLINDRICAL_SURFACE('',#295,4.25);
#297=ORIENTED_EDGE('',*,*,#207,.F.);
#298=ORIENTED_EDGE('',*,*,#287,.F.);
#299=CARTESIAN_POINT('',(10.750000000000011,2.981786E-015,5.000000000000004));
#300=DIRECTION('',(0.0,0.0,-1.0));
#301=DIRECTION('',(0.0,-1.0,0.0));
#302=AXIS2_PLACEMENT_3D('',#299,#300,#301);
#303=CIRCLE('',#302,4.25);
#304=EDGE_CURVE('',#219,#276,#303,.T.);
#305=ORIENTED_EDGE('',*,*,#304,.F.);
#306=ORIENTED_EDGE('',*,*,#224,.T.);
#307=EDGE_LOOP('',(#297,#298,#305,#306));
#308=FACE_OUTER_BOUND('',#307,.T.);
#309=ADVANCED_FACE('',(#308),#296,.F.);
#310=CARTESIAN_POINT('',(-23.964760235297284,13.836060772913736,0.675359086418243));
#311=DIRECTION('',(-0.352244265553647,0.203368321537901,0.913545457642601));
#312=DIRECTION('',(-0.5,-0.866025403784438,1.922963E-016));
#313=AXIS2_PLACEMENT_3D('',#310,#311,#312);
#314=CONICAL_SURFACE('',#313,4.750000000000001,45.000000000000007);
#315=CARTESIAN_POINT('',(-19.570362262601758,11.298953920451627,4.521767187069978));
#316=VERTEX_POINT('',#315);
#317=CARTESIAN_POINT('',(-29.380666578098385,16.962935757835758,-0.521767187069949));
#318=VERTEX_POINT('',#317);
#319=CARTESIAN_POINT('',(-19.570362262601769,11.29895392045163,4.52176718706995));
#320=CARTESIAN_POINT('',(-19.901885348637872,10.724739091555071,4.52176718706995));
#321=CARTESIAN_POINT('',(-20.351443177418801,10.165511779539624,4.458457692560093));
#322=CARTESIAN_POINT('',(-21.39873540437247,9.246087525961999,4.208225576495513));
#323=CARTESIAN_POINT('',(-21.996489148018181,8.885612578391012,4.022406689376518));
#324=CARTESIAN_POINT('',(-23.163169997930481,8.411420154674097,3.612836668956041));
#325=CARTESIAN_POINT('',(-23.819873787441086,8.260917674562581,3.358522707524276));
#326=CARTESIAN_POINT('',(-25.129308725267485,8.206980332093256,2.813614860220295));
#327=CARTESIAN_POINT('',(-25.782191125864877,8.303555515373958,2.52338351599899));
#328=CARTESIAN_POINT('',(-27.097217638044128,8.727080249744365,1.908279835819662));
#329=CARTESIAN_POINT('',(-27.829390841376565,9.150680758944942,1.540855397952896));
#330=CARTESIAN_POINT('',(-29.03641614326418,10.300621007332733,0.866674696560258));
#331=CARTESIAN_POINT('',(-29.5109363785879,11.026864037329233,0.559159581184475));
#332=CARTESIAN_POINT('',(-30.107691829473456,12.572668006207985,0.058979745797989));
#333=CARTESIAN_POINT('',(-30.252067499955892,13.486628710713795,-0.159074195609095));
#334=CARTESIAN_POINT('',(-30.108628289275572,15.300857924147291,-0.44914461887541));
#335=CARTESIAN_POINT('',(-29.820564731538024,16.201009805922514,-0.521767187069959));
#336=CARTESIAN_POINT('',(-29.38066657809836,16.962935757835741,-0.521767187069959));
#337=B_SPLINE_CURVE_WITH_KNOTS('',3,(#319,#320,#321,#322,#323,#324,#325,#326,#327,#328,#329,#330,#331,#332,#333,#334,#335,#336),.UNSPECIFIED.,.F.,.U.,(4,2,2,2,2,2,2,2,4),(0.79457541761644,0.993489269238103,1.192403120859766,1.390776978046324,1.589150835232881,1.844463920679149,2.099777006125416,2.363715898189216,2.627654790253015),.UNSPECIFIED.);
#338=EDGE_CURVE('',#316,#318,#337,.T.);
#339=ORIENTED_EDGE('',*,*,#338,.F.);
#340=CARTESIAN_POINT('',(-29.380666578098364,16.962935757835741,-0.521767187069959));
#341=CARTESIAN_POINT('',(-28.9407684246587,17.724861709748968,-0.521767187069959));
#342=CARTESIAN_POINT('',(-28.305245806645758,18.424408009541821,-0.449144618875408));
#343=CARTESIAN_POINT('',(-26.805796824864643,19.455744616606513,-0.159074195609094));
#344=CARTESIAN_POINT('',(-25.942095801460674,19.787691970533228,0.058979745797989));
#345=CARTESIAN_POINT('',(-24.305012569698089,20.043788574658876,0.559159581184474));
#346=CARTESIAN_POINT('',(-23.438807538737869,19.99596351125701,0.866674696560258));
#347=CARTESIAN_POINT('',(-21.839417419856044,19.525619061005646,1.540855397952896));
#348=CARTESIAN_POINT('',(-21.106482016166112,19.103338721549818,1.908279835819662));
#349=CARTESIAN_POINT('',(-20.530057484833591,18.581620651194861,2.254430460178795));
#350=CARTESIAN_POINT('',(-20.082185580980656,18.176254722537738,2.52338351599899));
#351=CARTESIAN_POINT('',(-19.67210781858574,17.659129569576983,2.81361486022029));
#352=CARTESIAN_POINT('',(-19.064101458463597,16.498156977581761,3.358522707524272));
#353=CARTESIAN_POINT('',(-18.866088534817429,15.854183573048303,3.612836668956037));
#354=CARTESIAN_POINT('',(-18.693410795082244,14.606712107056975,4.022406689376515));
#355=CARTESIAN_POINT('',(-18.706714385283732,13.908804706067052,4.208225576495508));
#356=CARTESIAN_POINT('',(-18.979313032260666,12.542110905550384,4.458457692560089));
#357=CARTESIAN_POINT('',(-19.238839176565662,11.873168749348192,4.52176718706995));
#358=CARTESIAN_POINT('',(-19.570362262601765,11.298953920451634,4.52176718706995));
#359=B_SPLINE_CURVE_WITH_KNOTS('',3,(#340,#341,#342,#343,#344,#345,#346,#347,#348,#349,#350,#351,#352,#353,#354,#355,#356,#357,#358),.UNSPECIFIED.,.F.,.U.,(4,2,2,2,3,2,2,2,4),(2.627654790253015,2.891593682316814,3.155532574380613,3.410845659826881,3.666158745273148,3.864532602459706,4.062906459646264,4.261820311267926,4.460734162889589),.UNSPECIFIED.);
#360=EDGE_CURVE('',#318,#316,#359,.T.);
#361=ORIENTED_EDGE('',*,*,#360,.F.);
#362=EDGE_LOOP('',(#339,#361));
#363=FACE_OUTER_BOUND('',#362,.T.);
#364=CARTESIAN_POINT('',(-25.104006050244493,10.683292874195134,-0.649281827163528));
#365=VERTEX_POINT('',#364);
#366=CARTESIAN_POINT('',(-23.454006050244487,13.54117670668378,-0.649281827163536));
#367=DIRECTION('',(-0.352244265553647,0.2033683215379,0.913545457642601));
#368=DIRECTION('',(-0.5,-0.866025403784438,1.922963E-016));
#369=AXIS2_PLACEMENT_3D('',#366,#367,#368);
#370=CIRCLE('',#369,3.3);
#371=EDGE_CURVE('',#365,#365,#370,.T.);
#372=ORIENTED_EDGE('',*,*,#371,.F.);
#373=EDGE_LOOP('',(#372));
#374=FACE_BOUND('',#373,.T.);
#375=ADVANCED_FACE('',(#363,#374),#314,.F.);
#376=CARTESIAN_POINT('',(10.572347481522627,-6.103947664423377,-88.896625358020543));
#377=DIRECTION('',(-0.352244265553647,0.203368321537901,0.913545457642601));
#378=DIRECTION('',(-0.5,-0.866025403784438,1.922963E-016));
#379=AXIS2_PLACEMENT_3D('',#376,#377,#378);
#380=CYLINDRICAL_SURFACE('',#379,3.300000000000001);
#381=ORIENTED_EDGE('',*,*,#171,.F.);
#382=EDGE_LOOP('',(#381));
#383=FACE_OUTER_BOUND('',#382,.T.);
#384=ORIENTED_EDGE('',*,*,#371,.T.);
#385=EDGE_LOOP('',(#384));
#386=FACE_BOUND('',#385,.T.);
#387=ADVANCED_FACE('',(#383,#386),#380,.F.);
#388=CARTESIAN_POINT('',(23.964760235297291,13.83606077291372,0.675359086418243));
#389=DIRECTION('',(0.352244265553647,0.2033683215379,0.913545457642601));
#390=DIRECTION('',(-0.5,0.866025403784439,-1.922963E-016));
#391=AXIS2_PLACEMENT_3D('',#388,#389,#390);
#392=CONICAL_SURFACE('',#391,4.750000000000001,45.000000000000007);
#393=CARTESIAN_POINT('',(19.570362262601762,11.298953920451616,4.52176718706998));
#394=VERTEX_POINT('',#393);
#395=CARTESIAN_POINT('',(29.380666578098396,16.962935757835737,-0.521767187069949));
#396=VERTEX_POINT('',#395);
#397=CARTESIAN_POINT('',(19.570362262601773,11.298953920451622,4.52176718706995));
#398=CARTESIAN_POINT('',(19.238839176565669,11.873168749348181,4.52176718706995));
#399=CARTESIAN_POINT('',(18.979313032260677,12.542110905550366,4.45845769256009));
#400=CARTESIAN_POINT('',(18.706714385283743,13.908804706067038,4.208225576495511));
#401=CARTESIAN_POINT('',(18.693410795082247,14.606712107056964,4.022406689376518));
#402=CARTESIAN_POINT('',(18.866088534817433,15.854183573048291,3.612836668956039));
#403=CARTESIAN_POINT('',(19.064101458463604,16.498156977581743,3.358522707524275));
#404=CARTESIAN_POINT('',(19.672107818585744,17.659129569576962,2.813614860220294));
#405=CARTESIAN_POINT('',(20.082185580980667,18.17625472253772,2.523383515998989));
#406=CARTESIAN_POINT('',(21.106482016166126,19.103338721549797,1.90827983581966));
#407=CARTESIAN_POINT('',(21.839417419856062,19.525619061005631,1.540855397952896));
#408=CARTESIAN_POINT('',(23.438807538737887,19.995963511256992,0.866674696560257));
#409=CARTESIAN_POINT('',(24.305012569698107,20.043788574658848,0.559159581184474));
#410=CARTESIAN_POINT('',(25.942095801460692,19.787691970533203,0.058979745797989));
#411=CARTESIAN_POINT('',(26.805796824864672,19.455744616606495,-0.159074195609097));
#412=CARTESIAN_POINT('',(28.305245806645772,18.424408009541803,-0.449144618875409));
#413=CARTESIAN_POINT('',(28.94076842465871,17.724861709748957,-0.521767187069959));
#414=CARTESIAN_POINT('',(29.380666578098374,16.962935757835723,-0.521767187069959));
#415=B_SPLINE_CURVE_WITH_KNOTS('',3,(#397,#398,#399,#400,#401,#402,#403,#404,#405,#406,#407,#408,#409,#410,#411,#412,#413,#414),.UNSPECIFIED.,.F.,.U.,(4,2,2,2,2,2,2,2,4),(0.794575417616441,0.993489269238103,1.192403120859766,1.390776978046324,1.589150835232882,1.844463920679149,2.099777006125417,2.363715898189216,2.627654790253015),.UNSPECIFIED.);
#416=EDGE_CURVE('',#394,#396,#415,.T.);
#417=ORIENTED_EDGE('',*,*,#416,.F.);
#418=CARTESIAN_POINT('',(29.380666578098371,16.962935757835726,-0.521767187069959));
#419=CARTESIAN_POINT('',(29.820564731538035,16.201009805922496,-0.521767187069959));
#420=CARTESIAN_POINT('',(30.108628289275579,15.30085792414727,-0.449144618875406));
#421=CARTESIAN_POINT('',(30.252067499955899,13.486628710713774,-0.159074195609091));
#422=CARTESIAN_POINT('',(30.107691829473463,12.572668006207962,0.05897974579799));
#423=CARTESIAN_POINT('',(29.510936378587907,11.026864037329215,0.559159581184476));
#424=CARTESIAN_POINT('',(29.036416143264191,10.300621007332719,0.866674696560255));
#425=CARTESIAN_POINT('',(27.829390841376579,9.150680758944926,1.540855397952893));
#426=CARTESIAN_POINT('',(27.097217638044135,8.727080249744351,1.908279835819662));
#427=CARTESIAN_POINT('',(26.357184269837084,8.488740997423324,2.254430460178795));
#428=CARTESIAN_POINT('',(25.782191125864884,8.303555515373944,2.523383515998992));
#429=CARTESIAN_POINT('',(25.129308725267492,8.206980332093238,2.813614860220293));
#430=CARTESIAN_POINT('',(23.81987378744109,8.260917674562563,3.358522707524275));
#431=CARTESIAN_POINT('',(23.163169997930481,8.411420154674079,3.612836668956041));
#432=CARTESIAN_POINT('',(21.996489148018181,8.885612578390994,4.022406689376518));
#433=CARTESIAN_POINT('',(21.398735404372474,9.246087525961992,4.208225576495514));
#434=CARTESIAN_POINT('',(20.351443177418808,10.165511779539617,4.458457692560092));
#435=CARTESIAN_POINT('',(19.901885348637872,10.724739091555062,4.521767187069951));
#436=CARTESIAN_POINT('',(19.570362262601769,11.298953920451622,4.521767187069951));
#437=B_SPLINE_CURVE_WITH_KNOTS('',3,(#418,#419,#420,#421,#422,#423,#424,#425,#426,#427,#428,#429,#430,#431,#432,#433,#434,#435,#436),.UNSPECIFIED.,.F.,.U.,(4,2,2,2,3,2,2,2,4),(2.627654790253015,2.891593682316815,3.155532574380614,3.410845659826881,3.666158745273149,3.864532602459707,4.062906459646265,4.261820311267927,4.460734162889589),.UNSPECIFIED.);
#438=EDGE_CURVE('',#396,#394,#437,.T.);
#439=ORIENTED_EDGE('',*,*,#438,.F.);
#440=EDGE_LOOP('',(#417,#439));
#441=FACE_OUTER_BOUND('',#440,.T.);
#442=CARTESIAN_POINT('',(21.804006050244503,16.39906053917241,-0.649281827163529));
#443=VERTEX_POINT('',#442);
#444=CARTESIAN_POINT('',(23.454006050244498,13.541176706683762,-0.649281827163536));
#445=DIRECTION('',(0.352244265553647,0.2033683215379,0.913545457642601));
#446=DIRECTION('',(-0.5,0.866025403784439,-1.922963E-016));
#447=AXIS2_PLACEMENT_3D('',#444,#445,#446);
#448=CIRCLE('',#447,3.3);
#449=EDGE_CURVE('',#443,#443,#448,.T.);
#450=ORIENTED_EDGE('',*,*,#449,.F.);
#451=EDGE_LOOP('',(#450));
#452=FACE_BOUND('',#451,.T.);
#453=ADVANCED_FACE('',(#441,#452),#392,.F.);
#454=CARTESIAN_POINT('',(-10.57234748152263,-6.103947664423373,-88.896625358020543));
#455=DIRECTION('',(0.352244265553647,0.2033683215379,0.913545457642601));
#456=DIRECTION('',(-0.5,0.866025403784439,-1.922963E-016));
#457=AXIS2_PLACEMENT_3D('',#454,#455,#456);
#458=CYLINDRICAL_SURFACE('',#457,3.3);
#459=ORIENTED_EDGE('',*,*,#160,.F.);
#460=EDGE_LOOP('',(#459));
#461=FACE_OUTER_BOUND('',#460,.T.);
#462=ORIENTED_EDGE('',*,*,#449,.T.);
#463=EDGE_LOOP('',(#462));
#464=FACE_BOUND('',#463,.T.);
#465=ADVANCED_FACE('',(#461,#464),#458,.F.);
#466=CARTESIAN_POINT('',(10.761889678287346,1.110223E-015,5.000000000000004));
#467=DIRECTION('',(0.0,0.0,1.0));
#468=DIRECTION('',(1.0,0.0,0.0));
#469=AXIS2_PLACEMENT_3D('',#466,#467,#468);
#470=PLANE('',#469);
#471=ORIENTED_EDGE('',*,*,#104,.T.);
#472=CARTESIAN_POINT('',(0.0,1.110223E-015,5.000000000000007));
#473=DIRECTION('',(0.0,0.0,-1.0));
#474=DIRECTION('',(1.0,0.0,0.0));
#475=AXIS2_PLACEMENT_3D('',#472,#473,#474);
#476=CIRCLE('',#475,21.523779356574693);
#477=EDGE_CURVE('',#99,#84,#476,.T.);
#478=ORIENTED_EDGE('',*,*,#477,.F.);
#479=EDGE_LOOP('',(#471,#478));
#480=FACE_OUTER_BOUND('',#479,.T.);
#481=ORIENTED_EDGE('',*,*,#232,.T.);
#482=ORIENTED_EDGE('',*,*,#304,.T.);
#483=ORIENTED_EDGE('',*,*,#281,.T.);
#484=ORIENTED_EDGE('',*,*,#257,.T.);
#485=EDGE_LOOP('',(#481,#482,#483,#484));
#486=FACE_BOUND('',#485,.T.);
#487=ADVANCED_FACE('',(#480,#486),#470,.T.);
#488=CARTESIAN_POINT('',(0.0,4.440892E-016,2.000000000000004));
#489=DIRECTION('',(0.0,-2.220446E-016,-1.0));
#490=DIRECTION('',(1.0,0.0,0.0));
#491=AXIS2_PLACEMENT_3D('',#488,#489,#490);
#492=CONICAL_SURFACE('',#491,28.261889678287346,65.999999999999986);
#493=ORIENTED_EDGE('',*,*,#96,.T.);
#494=CARTESIAN_POINT('',(0.0,-2.220446E-016,-1.0));
#495=DIRECTION('',(0.0,0.0,-1.0));
#496=DIRECTION('',(1.0,0.0,0.0));
#497=AXIS2_PLACEMENT_3D('',#494,#495,#496);
#498=CIRCLE('',#497,35.0);
#499=EDGE_CURVE('',#107,#74,#498,.T.);
#500=ORIENTED_EDGE('',*,*,#499,.F.);
#501=ORIENTED_EDGE('',*,*,#119,.T.);
#502=ORIENTED_EDGE('',*,*,#477,.T.);
#503=EDGE_LOOP('',(#493,#500,#501,#502));
#504=FACE_OUTER_BOUND('',#503,.T.);
#505=ORIENTED_EDGE('',*,*,#338,.T.);
#506=ORIENTED_EDGE('',*,*,#360,.T.);
#507=EDGE_LOOP('',(#505,#506));
#508=FACE_BOUND('',#507,.T.);
#509=ORIENTED_EDGE('',*,*,#416,.T.);
#510=ORIENTED_EDGE('',*,*,#438,.T.);
#511=EDGE_LOOP('',(#509,#510));
#512=FACE_BOUND('',#511,.T.);
#513=ADVANCED_FACE('',(#504,#508,#512),#492,.T.);
#514=CARTESIAN_POINT('',(0.0,-6.661338E-016,-3.0));
#515=DIRECTION('',(0.0,-2.220446E-016,-1.0));
#516=DIRECTION('',(1.0,0.0,0.0));
#517=AXIS2_PLACEMENT_3D('',#514,#515,#516);
#518=CYLINDRICAL_SURFACE('',#517,35.0);
#519=ORIENTED_EDGE('',*,*,#81,.T.);
#520=ORIENTED_EDGE('',*,*,#149,.F.);
#521=ORIENTED_EDGE('',*,*,#127,.T.);
#522=ORIENTED_EDGE('',*,*,#499,.T.);
#523=EDGE_LOOP('',(#519,#520,#521,#522));
#524=FACE_OUTER_BOUND('',#523,.T.);
#525=ADVANCED_FACE('',(#524),#518,.T.);
#526=CLOSED_SHELL('',(#137,#211,#242,#267,#291,#309,#375,#387,#453,#465,#487,#513,#525));
#527=MANIFOLD_SOLID_BREP('Volumenk\S\vrper1',#526);
#528=COLOUR_RGB('Metall - Stahl',0.639216005802155,0.639216005802155,0.686275005340576);
#529=FILL_AREA_STYLE_COLOUR('Metall - Stahl',#528);
#530=FILL_AREA_STYLE('Metall - Stahl',(#529));
#531=SURFACE_STYLE_FILL_AREA(#530);
#532=SURFACE_SIDE_STYLE('Metall - Stahl',(#531));
#533=SURFACE_STYLE_USAGE(.BOTH.,#532);
#534=PRESENTATION_STYLE_ASSIGNMENT((#533));
#535=STYLED_ITEM('',(#534),#527);
#536=MECHANICAL_DESIGN_GEOMETRIC_PRESENTATION_REPRESENTATION('',(#535),#36);
#537=ADVANCED_BREP_SHAPE_REPRESENTATION('ABSR',(#527),#36);
#538=SHAPE_REPRESENTATION_RELATIONSHIP('SRR','None',#537,#41);
ENDSEC;
END-ISO-10303-21;
