ISO-10303-21;
HEADER;
/****************************************************************
 * Generated by software with PDElib inside                    *
 * PDElib Version v51a, created Wed 07/06/2011                  *
 * ITI Transcendata (http://www.transcendata.com/)              *
 ****************************************************************/
FILE_DESCRIPTION((''),'2;1');
FILE_NAME('U:\\Paletti Norm\\Paletti Artikel\\SZ\\SZ1110S_A.stp','2013-08-28T14:06:54',('janine behrens'),(''),'Autodesk Inventor 2012','Autodesk Inventor 2012','');
FILE_SCHEMA(('AUTOMOTIVE_DESIGN { 1 0 10303 214 1 1 1 1 }'));
ENDSEC;
DATA;
#5=APPLICATION_CONTEXT('automotive design');
#6=APPLICATION_PROTOCOL_DEFINITION('International Standard','automotive_design',2001,#5);
#7=PRODUCT_CONTEXT('',#5,'mechanical');
#8=PRODUCT('SZ1110S_A','SZ1110S_A',$,(#7));
#9=PRODUCT_RELATED_PRODUCT_CATEGORY('part',$,(#8));
#10=PRODUCT_DEFINITION_FORMATION('',$,#8);
#11=PRODUCT_DEFINITION_CONTEXT('part definition',#5,'design');
#12=PRODUCT_DEFINITION('',$,#10,#11);
#18=(NAMED_UNIT(*)PLANE_ANGLE_UNIT()SI_UNIT($,.RADIAN.));
#19=DIMENSIONAL_EXPONENTS(0.0,0.0,0.0,0.0,0.0,0.0,0.0);
#20=PLANE_ANGLE_MEASURE_WITH_UNIT(PLANE_ANGLE_MEASURE(0.0174532925),#18);
#24=(CONVERSION_BASED_UNIT('DEGREE',#20)NAMED_UNIT(#19)PLANE_ANGLE_UNIT());
#28=(NAMED_UNIT(*)SI_UNIT($,.STERADIAN.)SOLID_ANGLE_UNIT());
#32=(LENGTH_UNIT()NAMED_UNIT(*)SI_UNIT(.MILLI.,.METRE.));
#34=UNCERTAINTY_MEASURE_WITH_UNIT(LENGTH_MEASURE(0.01),#32,'DISTANCE_ACCURACY_VALUE','');
#36=(GEOMETRIC_REPRESENTATION_CONTEXT(3)GLOBAL_UNCERTAINTY_ASSIGNED_CONTEXT((#34))GLOBAL_UNIT_ASSIGNED_CONTEXT((#24,#28,#32))REPRESENTATION_CONTEXT('None','None'));
#37=AXIS2_PLACEMENT_3D('',#38,#39,#40);
#38=CARTESIAN_POINT('',(0.0,0.0,0.0));
#39=DIRECTION('',(0.0,0.0,1.0));
#40=DIRECTION('',(1.0,0.0,0.0));
#41=SHAPE_REPRESENTATION('',(#37),#36);
#42=PRODUCT_DEFINITION_SHAPE('','',#12);
#43=SHAPE_DEFINITION_REPRESENTATION(#42,#41);
#49=(NAMED_UNIT(*)PLANE_ANGLE_UNIT()SI_UNIT($,.RADIAN.));
#50=DIMENSIONAL_EXPONENTS(0.0,0.0,0.0,0.0,0.0,0.0,0.0);
#51=PLANE_ANGLE_MEASURE_WITH_UNIT(PLANE_ANGLE_MEASURE(0.0174532925),#49);
#55=(CONVERSION_BASED_UNIT('DEGREE',#51)NAMED_UNIT(#50)PLANE_ANGLE_UNIT());
#59=(NAMED_UNIT(*)SI_UNIT($,.STERADIAN.)SOLID_ANGLE_UNIT());
#63=(LENGTH_UNIT()NAMED_UNIT(*)SI_UNIT(.MILLI.,.METRE.));
#65=UNCERTAINTY_MEASURE_WITH_UNIT(LENGTH_MEASURE(0.000001),#63,'DISTANCE_ACCURACY_VALUE','');
#67=(GEOMETRIC_REPRESENTATION_CONTEXT(3)GLOBAL_UNCERTAINTY_ASSIGNED_CONTEXT((#65))GLOBAL_UNIT_ASSIGNED_CONTEXT((#55,#59,#63))REPRESENTATION_CONTEXT('','3D'));
#68=CARTESIAN_POINT('',(15.000000000000002,3.000000000000002,-7.000000000000001));
#69=DIRECTION('',(9.158873E-017,-0.707106781186547,-0.707106781186548));
#70=DIRECTION('',(-1.0,0.0,0.0));
#71=AXIS2_PLACEMENT_3D('',#68,#69,#70);
#72=PLANE('',#71);
#73=CARTESIAN_POINT('',(-29.933259094191534,1.999999999999996,-6.000000000000001));
#74=VERTEX_POINT('',#73);
#75=CARTESIAN_POINT('',(-29.732137494637012,3.999999999999996,-8.0));
#76=VERTEX_POINT('',#75);
#77=CARTESIAN_POINT('',(0.0,0.0,-4.000000000000001));
#78=DIRECTION('',(9.158873E-017,-0.707106781186547,-0.707106781186548));
#79=DIRECTION('',(0.0,0.707106781186548,-0.707106781186547));
#80=AXIS2_PLACEMENT_3D('',#77,#78,#79);
#81=ELLIPSE('',#80,42.426406871192839,30.000000000000004);
#82=EDGE_CURVE('',#74,#76,#81,.T.);
#83=ORIENTED_EDGE('',*,*,#82,.T.);
#84=CARTESIAN_POINT('',(29.732137494637012,4.000000000000004,-8.0));
#85=VERTEX_POINT('',#84);
#86=CARTESIAN_POINT('',(-29.732137494637016,3.999999999999997,-8.0));
#87=DIRECTION('',(1.0,0.0,0.0));
#88=VECTOR('',#87,59.464274989274031);
#89=LINE('',#86,#88);
#90=EDGE_CURVE('',#76,#85,#89,.T.);
#91=ORIENTED_EDGE('',*,*,#90,.T.);
#92=CARTESIAN_POINT('',(29.933259094191534,2.000000000000004,-6.000000000000001));
#93=VERTEX_POINT('',#92);
#94=CARTESIAN_POINT('',(0.0,0.0,-4.000000000000001));
#95=DIRECTION('',(9.158873E-017,-0.707106781186547,-0.707106781186548));
#96=DIRECTION('',(0.0,0.707106781186548,-0.707106781186547));
#97=AXIS2_PLACEMENT_3D('',#94,#95,#96);
#98=ELLIPSE('',#97,42.426406871192839,30.000000000000004);
#99=EDGE_CURVE('',#85,#93,#98,.T.);
#100=ORIENTED_EDGE('',*,*,#99,.T.);
#101=CARTESIAN_POINT('',(29.933259094191534,2.000000000000004,-6.000000000000001));
#102=DIRECTION('',(-1.0,0.0,0.0));
#103=VECTOR('',#102,59.866518188383075);
#104=LINE('',#101,#103);
#105=EDGE_CURVE('',#93,#74,#104,.T.);
#106=ORIENTED_EDGE('',*,*,#105,.T.);
#107=EDGE_LOOP('',(#83,#91,#100,#106));
#108=FACE_OUTER_BOUND('',#107,.T.);
#109=ADVANCED_FACE('',(#108),#72,.T.);
#110=CARTESIAN_POINT('',(0.0,0.0,0.0));
#111=DIRECTION('',(0.0,0.0,1.0));
#112=DIRECTION('',(1.0,0.0,0.0));
#113=AXIS2_PLACEMENT_3D('',#110,#111,#112);
#114=CYLINDRICAL_SURFACE('',#113,30.0);
#115=ORIENTED_EDGE('',*,*,#99,.F.);
#116=CARTESIAN_POINT('',(29.491524206117255,5.499999999999996,-8.0));
#117=VERTEX_POINT('',#116);
#118=CARTESIAN_POINT('',(0.0,0.0,-8.0));
#119=DIRECTION('',(0.0,0.0,1.0));
#120=DIRECTION('',(1.0,0.0,0.0));
#121=AXIS2_PLACEMENT_3D('',#118,#119,#120);
#122=CIRCLE('',#121,30.0);
#123=EDGE_CURVE('',#85,#117,#122,.T.);
#124=ORIENTED_EDGE('',*,*,#123,.T.);
#125=CARTESIAN_POINT('',(29.491524206117255,5.499999999999996,-4.0));
#126=VERTEX_POINT('',#125);
#127=CARTESIAN_POINT('',(29.491524206117255,5.499999999999996,-8.0));
#128=DIRECTION('',(0.0,0.0,1.0));
#129=VECTOR('',#128,4.0);
#130=LINE('',#127,#129);
#131=EDGE_CURVE('',#117,#126,#130,.T.);
#132=ORIENTED_EDGE('',*,*,#131,.T.);
#133=CARTESIAN_POINT('',(-29.491524206117255,5.499999999999996,-4.0));
#134=VERTEX_POINT('',#133);
#135=CARTESIAN_POINT('',(0.0,0.0,-4.0));
#136=DIRECTION('',(0.0,0.0,1.0));
#137=DIRECTION('',(1.0,0.0,0.0));
#138=AXIS2_PLACEMENT_3D('',#135,#136,#137);
#139=CIRCLE('',#138,30.0);
#140=EDGE_CURVE('',#126,#134,#139,.T.);
#141=ORIENTED_EDGE('',*,*,#140,.T.);
#142=CARTESIAN_POINT('',(-29.491524206117255,5.499999999999996,-8.0));
#143=VERTEX_POINT('',#142);
#144=CARTESIAN_POINT('',(-29.491524206117255,5.499999999999996,-4.0));
#145=DIRECTION('',(0.0,0.0,-1.0));
#146=VECTOR('',#145,4.0);
#147=LINE('',#144,#146);
#148=EDGE_CURVE('',#134,#143,#147,.T.);
#149=ORIENTED_EDGE('',*,*,#148,.T.);
#150=CARTESIAN_POINT('',(0.0,0.0,-8.0));
#151=DIRECTION('',(0.0,0.0,1.0));
#152=DIRECTION('',(1.0,0.0,0.0));
#153=AXIS2_PLACEMENT_3D('',#150,#151,#152);
#154=CIRCLE('',#153,30.0);
#155=EDGE_CURVE('',#143,#76,#154,.T.);
#156=ORIENTED_EDGE('',*,*,#155,.T.);
#157=ORIENTED_EDGE('',*,*,#82,.F.);
#158=CARTESIAN_POINT('',(-29.933259094191534,1.999999999999996,6.000000000000001));
#159=VERTEX_POINT('',#158);
#160=CARTESIAN_POINT('',(-29.933259094191534,1.999999999999996,-6.000000000000001));
#161=DIRECTION('',(0.0,0.0,1.0));
#162=VECTOR('',#161,12.000000000000002);
#163=LINE('',#160,#162);
#164=EDGE_CURVE('',#74,#159,#163,.T.);
#165=ORIENTED_EDGE('',*,*,#164,.T.);
#166=CARTESIAN_POINT('',(-29.732137494637012,3.999999999999996,8.0));
#167=VERTEX_POINT('',#166);
#168=CARTESIAN_POINT('',(0.0,0.0,4.000000000000001));
#169=DIRECTION('',(9.158873E-017,-0.707106781186547,0.707106781186548));
#170=DIRECTION('',(0.0,0.707106781186548,0.707106781186547));
#171=AXIS2_PLACEMENT_3D('',#168,#169,#170);
#172=ELLIPSE('',#171,42.426406871192839,30.000000000000004);
#173=EDGE_CURVE('',#167,#159,#172,.T.);
#174=ORIENTED_EDGE('',*,*,#173,.F.);
#175=CARTESIAN_POINT('',(-29.491524206117255,5.499999999999996,8.0));
#176=VERTEX_POINT('',#175);
#177=CARTESIAN_POINT('',(0.0,0.0,8.0));
#178=DIRECTION('',(0.0,0.0,-1.0));
#179=DIRECTION('',(1.0,0.0,0.0));
#180=AXIS2_PLACEMENT_3D('',#177,#178,#179);
#181=CIRCLE('',#180,30.0);
#182=EDGE_CURVE('',#167,#176,#181,.T.);
#183=ORIENTED_EDGE('',*,*,#182,.T.);
#184=CARTESIAN_POINT('',(-29.491524206117255,5.499999999999996,4.0));
#185=VERTEX_POINT('',#184);
#186=CARTESIAN_POINT('',(-29.491524206117255,5.499999999999996,8.0));
#187=DIRECTION('',(0.0,0.0,-1.0));
#188=VECTOR('',#187,4.0);
#189=LINE('',#186,#188);
#190=EDGE_CURVE('',#176,#185,#189,.T.);
#191=ORIENTED_EDGE('',*,*,#190,.T.);
#192=CARTESIAN_POINT('',(29.491524206117255,5.499999999999996,4.0));
#193=VERTEX_POINT('',#192);
#194=CARTESIAN_POINT('',(0.0,0.0,4.0));
#195=DIRECTION('',(0.0,0.0,-1.0));
#196=DIRECTION('',(1.0,0.0,0.0));
#197=AXIS2_PLACEMENT_3D('',#194,#195,#196);
#198=CIRCLE('',#197,30.0);
#199=EDGE_CURVE('',#185,#193,#198,.T.);
#200=ORIENTED_EDGE('',*,*,#199,.T.);
#201=CARTESIAN_POINT('',(29.491524206117255,5.499999999999996,8.0));
#202=VERTEX_POINT('',#201);
#203=CARTESIAN_POINT('',(29.491524206117255,5.499999999999996,4.0));
#204=DIRECTION('',(0.0,0.0,1.0));
#205=VECTOR('',#204,4.0);
#206=LINE('',#203,#205);
#207=EDGE_CURVE('',#193,#202,#206,.T.);
#208=ORIENTED_EDGE('',*,*,#207,.T.);
#209=CARTESIAN_POINT('',(29.732137494637012,4.000000000000004,8.0));
#210=VERTEX_POINT('',#209);
#211=CARTESIAN_POINT('',(0.0,0.0,8.0));
#212=DIRECTION('',(0.0,0.0,-1.0));
#213=DIRECTION('',(1.0,0.0,0.0));
#214=AXIS2_PLACEMENT_3D('',#211,#212,#213);
#215=CIRCLE('',#214,30.0);
#216=EDGE_CURVE('',#202,#210,#215,.T.);
#217=ORIENTED_EDGE('',*,*,#216,.T.);
#218=CARTESIAN_POINT('',(29.933259094191534,2.000000000000004,6.000000000000001));
#219=VERTEX_POINT('',#218);
#220=CARTESIAN_POINT('',(0.0,0.0,4.000000000000001));
#221=DIRECTION('',(9.158873E-017,-0.707106781186547,0.707106781186548));
#222=DIRECTION('',(0.0,0.707106781186548,0.707106781186547));
#223=AXIS2_PLACEMENT_3D('',#220,#221,#222);
#224=ELLIPSE('',#223,42.426406871192839,30.000000000000004);
#225=EDGE_CURVE('',#219,#210,#224,.T.);
#226=ORIENTED_EDGE('',*,*,#225,.F.);
#227=CARTESIAN_POINT('',(29.933259094191534,2.000000000000004,6.000000000000001));
#228=DIRECTION('',(0.0,0.0,-1.0));
#229=VECTOR('',#228,12.000000000000002);
#230=LINE('',#227,#229);
#231=EDGE_CURVE('',#219,#93,#230,.T.);
#232=ORIENTED_EDGE('',*,*,#231,.T.);
#233=EDGE_LOOP('',(#115,#124,#132,#141,#149,#156,#157,#165,#174,#183,#191,#200,#208,#217,#226,#232));
#234=FACE_OUTER_BOUND('',#233,.T.);
#235=ADVANCED_FACE('',(#234),#114,.T.);
#236=CARTESIAN_POINT('',(2.892729E-015,10.521272322061801,-8.0));
#237=DIRECTION('',(0.0,0.0,1.0));
#238=DIRECTION('',(1.0,0.0,0.0));
#239=AXIS2_PLACEMENT_3D('',#236,#237,#238);
#240=PLANE('',#239);
#241=ORIENTED_EDGE('',*,*,#90,.F.);
#242=ORIENTED_EDGE('',*,*,#155,.F.);
#243=CARTESIAN_POINT('',(-29.491524206117255,5.499999999999996,-8.0));
#244=DIRECTION('',(1.0,0.0,0.0));
#245=VECTOR('',#244,58.98304841223451);
#246=LINE('',#243,#245);
#247=EDGE_CURVE('',#143,#117,#246,.T.);
#248=ORIENTED_EDGE('',*,*,#247,.T.);
#249=ORIENTED_EDGE('',*,*,#123,.F.);
#250=EDGE_LOOP('',(#241,#242,#248,#249));
#251=FACE_OUTER_BOUND('',#250,.T.);
#252=ADVANCED_FACE('',(#251),#240,.F.);
#253=CARTESIAN_POINT('',(15.000000000000002,3.000000000000002,7.000000000000001));
#254=DIRECTION('',(9.158873E-017,-0.707106781186547,0.707106781186548));
#255=DIRECTION('',(1.0,0.0,0.0));
#256=AXIS2_PLACEMENT_3D('',#253,#254,#255);
#257=PLANE('',#256);
#258=ORIENTED_EDGE('',*,*,#225,.T.);
#259=CARTESIAN_POINT('',(29.732137494637012,4.000000000000004,8.0));
#260=DIRECTION('',(-1.0,0.0,0.0));
#261=VECTOR('',#260,59.464274989274031);
#262=LINE('',#259,#261);
#263=EDGE_CURVE('',#210,#167,#262,.T.);
#264=ORIENTED_EDGE('',*,*,#263,.T.);
#265=ORIENTED_EDGE('',*,*,#173,.T.);
#266=CARTESIAN_POINT('',(-29.933259094191541,1.999999999999996,6.000000000000001));
#267=DIRECTION('',(1.0,0.0,0.0));
#268=VECTOR('',#267,59.866518188383075);
#269=LINE('',#266,#268);
#270=EDGE_CURVE('',#159,#219,#269,.T.);
#271=ORIENTED_EDGE('',*,*,#270,.T.);
#272=EDGE_LOOP('',(#258,#264,#265,#271));
#273=FACE_OUTER_BOUND('',#272,.T.);
#274=ADVANCED_FACE('',(#273),#257,.T.);
#275=CARTESIAN_POINT('',(30.0,2.000000000000004,8.0));
#276=DIRECTION('',(0.0,1.0,0.0));
#277=DIRECTION('',(0.0,0.0,1.0));
#278=AXIS2_PLACEMENT_3D('',#275,#276,#277);
#279=PLANE('',#278);
#280=ORIENTED_EDGE('',*,*,#105,.F.);
#281=ORIENTED_EDGE('',*,*,#231,.F.);
#282=ORIENTED_EDGE('',*,*,#270,.F.);
#283=ORIENTED_EDGE('',*,*,#164,.F.);
#284=EDGE_LOOP('',(#280,#281,#282,#283));
#285=FACE_OUTER_BOUND('',#284,.T.);
#286=ADVANCED_FACE('',(#285),#279,.F.);
#287=CARTESIAN_POINT('',(-4.042507E-047,21.0,-3.500000000000004));
#288=DIRECTION('',(3.850007E-048,0.0,-1.0));
#289=DIRECTION('',(1.0,0.0,0.0));
#290=AXIS2_PLACEMENT_3D('',#287,#288,#289);
#291=CONICAL_SURFACE('',#290,4.5,45.000000000000199);
#292=CARTESIAN_POINT('',(-4.0,21.0,-3.000000000000007));
#293=VERTEX_POINT('',#292);
#294=CARTESIAN_POINT('',(-4.235008E-047,21.0,-3.000000000000007));
#295=DIRECTION('',(0.0,0.0,1.0));
#296=DIRECTION('',(1.0,0.0,0.0));
#297=AXIS2_PLACEMENT_3D('',#294,#295,#296);
#298=CIRCLE('',#297,4.0);
#299=EDGE_CURVE('',#293,#293,#298,.T.);
#300=ORIENTED_EDGE('',*,*,#299,.T.);
#301=EDGE_LOOP('',(#300));
#302=FACE_OUTER_BOUND('',#301,.T.);
#303=CARTESIAN_POINT('',(-5.0,21.0,-4.0));
#304=VERTEX_POINT('',#303);
#305=CARTESIAN_POINT('',(-3.850007E-047,21.0,-4.0));
#306=DIRECTION('',(0.0,0.0,-1.0));
#307=DIRECTION('',(1.0,0.0,0.0));
#308=AXIS2_PLACEMENT_3D('',#305,#306,#307);
#309=CIRCLE('',#308,5.0);
#310=EDGE_CURVE('',#304,#304,#309,.T.);
#311=ORIENTED_EDGE('',*,*,#310,.T.);
#312=EDGE_LOOP('',(#311));
#313=FACE_BOUND('',#312,.T.);
#314=ADVANCED_FACE('',(#302,#313),#291,.F.);
#315=CARTESIAN_POINT('',(-2.772005E-046,21.0,-64.000000000000014));
#316=DIRECTION('',(3.850007E-048,5.227675E-031,1.0));
#317=DIRECTION('',(1.0,0.0,0.0));
#318=AXIS2_PLACEMENT_3D('',#315,#316,#317);
#319=CYLINDRICAL_SURFACE('',#318,4.0);
#320=CARTESIAN_POINT('',(4.0,21.0,3.000000000000007));
#321=VERTEX_POINT('',#320);
#322=CARTESIAN_POINT('',(-1.925003E-047,21.0,3.000000000000007));
#323=DIRECTION('',(0.0,0.0,-1.0));
#324=DIRECTION('',(-1.0,0.0,0.0));
#325=AXIS2_PLACEMENT_3D('',#322,#323,#324);
#326=CIRCLE('',#325,4.0);
#327=EDGE_CURVE('',#321,#321,#326,.T.);
#328=ORIENTED_EDGE('',*,*,#327,.F.);
#329=EDGE_LOOP('',(#328));
#330=FACE_OUTER_BOUND('',#329,.T.);
#331=ORIENTED_EDGE('',*,*,#299,.F.);
#332=EDGE_LOOP('',(#331));
#333=FACE_BOUND('',#332,.T.);
#334=ADVANCED_FACE('',(#330,#333),#319,.F.);
#335=CARTESIAN_POINT('',(0.0,18.0,-4.0));
#336=DIRECTION('',(0.0,0.0,1.0));
#337=DIRECTION('',(1.0,0.0,0.0));
#338=AXIS2_PLACEMENT_3D('',#335,#336,#337);
#339=PLANE('',#338);
#340=ORIENTED_EDGE('',*,*,#140,.F.);
#341=CARTESIAN_POINT('',(-29.491524206117255,5.499999999999996,-4.0));
#342=DIRECTION('',(1.0,0.0,0.0));
#343=VECTOR('',#342,58.98304841223451);
#344=LINE('',#341,#343);
#345=EDGE_CURVE('',#134,#126,#344,.T.);
#346=ORIENTED_EDGE('',*,*,#345,.F.);
#347=EDGE_LOOP('',(#340,#346));
#348=FACE_OUTER_BOUND('',#347,.T.);
#349=ORIENTED_EDGE('',*,*,#310,.F.);
#350=EDGE_LOOP('',(#349));
#351=FACE_BOUND('',#350,.T.);
#352=ADVANCED_FACE('',(#348,#351),#339,.F.);
#353=CARTESIAN_POINT('',(-1.732503E-047,21.0,3.500000000000004));
#354=DIRECTION('',(3.850007E-048,0.0,1.0));
#355=DIRECTION('',(-1.0,0.0,0.0));
#356=AXIS2_PLACEMENT_3D('',#353,#354,#355);
#357=CONICAL_SURFACE('',#356,4.5,45.000000000000199);
#358=ORIENTED_EDGE('',*,*,#327,.T.);
#359=EDGE_LOOP('',(#358));
#360=FACE_OUTER_BOUND('',#359,.T.);
#361=CARTESIAN_POINT('',(5.0,21.0,4.0));
#362=VERTEX_POINT('',#361);
#363=CARTESIAN_POINT('',(-1.540003E-047,21.0,4.0));
#364=DIRECTION('',(0.0,0.0,1.0));
#365=DIRECTION('',(-1.0,0.0,0.0));
#366=AXIS2_PLACEMENT_3D('',#363,#364,#365);
#367=CIRCLE('',#366,5.0);
#368=EDGE_CURVE('',#362,#362,#367,.T.);
#369=ORIENTED_EDGE('',*,*,#368,.T.);
#370=EDGE_LOOP('',(#369));
#371=FACE_BOUND('',#370,.T.);
#372=ADVANCED_FACE('',(#360,#371),#357,.F.);
#373=CARTESIAN_POINT('',(0.0,18.0,4.0));
#374=DIRECTION('',(0.0,0.0,1.0));
#375=DIRECTION('',(1.0,0.0,0.0));
#376=AXIS2_PLACEMENT_3D('',#373,#374,#375);
#377=PLANE('',#376);
#378=ORIENTED_EDGE('',*,*,#199,.F.);
#379=CARTESIAN_POINT('',(-29.491524206117255,5.499999999999996,4.0));
#380=DIRECTION('',(1.0,0.0,0.0));
#381=VECTOR('',#380,58.98304841223451);
#382=LINE('',#379,#381);
#383=EDGE_CURVE('',#185,#193,#382,.T.);
#384=ORIENTED_EDGE('',*,*,#383,.T.);
#385=EDGE_LOOP('',(#378,#384));
#386=FACE_OUTER_BOUND('',#385,.T.);
#387=ORIENTED_EDGE('',*,*,#368,.F.);
#388=EDGE_LOOP('',(#387));
#389=FACE_BOUND('',#388,.T.);
#390=ADVANCED_FACE('',(#386,#389),#377,.T.);
#391=CARTESIAN_POINT('',(-30.0,5.499999999999996,-8.0));
#392=DIRECTION('',(0.0,1.0,0.0));
#393=DIRECTION('',(0.0,0.0,1.0));
#394=AXIS2_PLACEMENT_3D('',#391,#392,#393);
#395=PLANE('',#394);
#396=ORIENTED_EDGE('',*,*,#148,.F.);
#397=ORIENTED_EDGE('',*,*,#345,.T.);
#398=ORIENTED_EDGE('',*,*,#131,.F.);
#399=ORIENTED_EDGE('',*,*,#247,.F.);
#400=EDGE_LOOP('',(#396,#397,#398,#399));
#401=FACE_OUTER_BOUND('',#400,.T.);
#402=ADVANCED_FACE('',(#401),#395,.T.);
#403=CARTESIAN_POINT('',(-30.0,5.499999999999996,8.0));
#404=DIRECTION('',(0.0,-1.0,0.0));
#405=DIRECTION('',(0.0,0.0,-1.0));
#406=AXIS2_PLACEMENT_3D('',#403,#404,#405);
#407=PLANE('',#406);
#408=ORIENTED_EDGE('',*,*,#190,.F.);
#409=CARTESIAN_POINT('',(29.491524206117255,5.499999999999996,8.0));
#410=DIRECTION('',(-1.0,0.0,0.0));
#411=VECTOR('',#410,58.98304841223451);
#412=LINE('',#409,#411);
#413=EDGE_CURVE('',#202,#176,#412,.T.);
#414=ORIENTED_EDGE('',*,*,#413,.F.);
#415=ORIENTED_EDGE('',*,*,#207,.F.);
#416=ORIENTED_EDGE('',*,*,#383,.F.);
#417=EDGE_LOOP('',(#408,#414,#415,#416));
#418=FACE_OUTER_BOUND('',#417,.T.);
#419=ADVANCED_FACE('',(#418),#407,.F.);
#420=CARTESIAN_POINT('',(2.892729E-015,10.521272322061801,8.0));
#421=DIRECTION('',(0.0,0.0,1.0));
#422=DIRECTION('',(1.0,0.0,0.0));
#423=AXIS2_PLACEMENT_3D('',#420,#421,#422);
#424=PLANE('',#423);
#425=ORIENTED_EDGE('',*,*,#263,.F.);
#426=ORIENTED_EDGE('',*,*,#216,.F.);
#427=ORIENTED_EDGE('',*,*,#413,.T.);
#428=ORIENTED_EDGE('',*,*,#182,.F.);
#429=EDGE_LOOP('',(#425,#426,#427,#428));
#430=FACE_OUTER_BOUND('',#429,.T.);
#431=ADVANCED_FACE('',(#430),#424,.T.);
#432=CLOSED_SHELL('',(#109,#235,#252,#274,#286,#314,#334,#352,#372,#390,#402,#419,#431));
#433=MANIFOLD_SOLID_BREP('Volumenk\S\vrper1',#432);
#434=DRAUGHTING_PRE_DEFINED_COLOUR('black');
#435=FILL_AREA_STYLE_COLOUR('Schwarz',#434);
#436=FILL_AREA_STYLE('Schwarz',(#435));
#437=SURFACE_STYLE_FILL_AREA(#436);
#438=SURFACE_SIDE_STYLE('Schwarz',(#437));
#439=SURFACE_STYLE_USAGE(.BOTH.,#438);
#440=PRESENTATION_STYLE_ASSIGNMENT((#439));
#441=STYLED_ITEM('',(#440),#433);
#442=MECHANICAL_DESIGN_GEOMETRIC_PRESENTATION_REPRESENTATION('',(#441),#36);
#443=ADVANCED_BREP_SHAPE_REPRESENTATION('ABSR',(#433),#36);
#444=SHAPE_REPRESENTATION_RELATIONSHIP('SRR','None',#443,#41);
ENDSEC;
END-ISO-10303-21;
