ISO-10303-21;
HEADER;
/****************************************************************
 * Generated by software with PDElib inside                    *
 * PDElib Version v51a, created Wed 07/06/2011                  *
 * ITI Transcendata (http://www.transcendata.com/)              *
 ****************************************************************/
FILE_DESCRIPTION((''),'2;1');
FILE_NAME('U:\\Paletti Norm\\Paletti Artikel\\SZ\\SZ1901S_A.stp','2013-08-29T13:41:23',('janine behrens'),(''),'Autodesk Inventor 2012','Autodesk Inventor 2012','');
FILE_SCHEMA(('AUTOMOTIVE_DESIGN { 1 0 10303 214 1 1 1 1 }'));
ENDSEC;
DATA;
#5=APPLICATION_CONTEXT('automotive design');
#6=APPLICATION_PROTOCOL_DEFINITION('International Standard','automotive_design',2001,#5);
#7=PRODUCT_CONTEXT('',#5,'mechanical');
#8=PRODUCT('SZ1901S_A','SZ1901S_A',$,(#7));
#9=PRODUCT_RELATED_PRODUCT_CATEGORY('part',$,(#8));
#10=PRODUCT_DEFINITION_FORMATION('',$,#8);
#11=PRODUCT_DEFINITION_CONTEXT('part definition',#5,'design');
#12=PRODUCT_DEFINITION('',$,#10,#11);
#18=(NAMED_UNIT(*)PLANE_ANGLE_UNIT()SI_UNIT($,.RADIAN.));
#19=DIMENSIONAL_EXPONENTS(0.0,0.0,0.0,0.0,0.0,0.0,0.0);
#20=PLANE_ANGLE_MEASURE_WITH_UNIT(PLANE_ANGLE_MEASURE(0.0174532925),#18);
#24=(CONVERSION_BASED_UNIT('DEGREE',#20)NAMED_UNIT(#19)PLANE_ANGLE_UNIT());
#28=(NAMED_UNIT(*)SI_UNIT($,.STERADIAN.)SOLID_ANGLE_UNIT());
#32=(LENGTH_UNIT()NAMED_UNIT(*)SI_UNIT(.MILLI.,.METRE.));
#34=UNCERTAINTY_MEASURE_WITH_UNIT(LENGTH_MEASURE(0.01),#32,'DISTANCE_ACCURACY_VALUE','');
#36=(GEOMETRIC_REPRESENTATION_CONTEXT(3)GLOBAL_UNCERTAINTY_ASSIGNED_CONTEXT((#34))GLOBAL_UNIT_ASSIGNED_CONTEXT((#24,#28,#32))REPRESENTATION_CONTEXT('None','None'));
#37=AXIS2_PLACEMENT_3D('',#38,#39,#40);
#38=CARTESIAN_POINT('',(0.0,0.0,0.0));
#39=DIRECTION('',(0.0,0.0,1.0));
#40=DIRECTION('',(1.0,0.0,0.0));
#41=SHAPE_REPRESENTATION('',(#37),#36);
#42=PRODUCT_DEFINITION_SHAPE('','',#12);
#43=SHAPE_DEFINITION_REPRESENTATION(#42,#41);
#49=(NAMED_UNIT(*)PLANE_ANGLE_UNIT()SI_UNIT($,.RADIAN.));
#50=DIMENSIONAL_EXPONENTS(0.0,0.0,0.0,0.0,0.0,0.0,0.0);
#51=PLANE_ANGLE_MEASURE_WITH_UNIT(PLANE_ANGLE_MEASURE(0.0174532925),#49);
#55=(CONVERSION_BASED_UNIT('DEGREE',#51)NAMED_UNIT(#50)PLANE_ANGLE_UNIT());
#59=(NAMED_UNIT(*)SI_UNIT($,.STERADIAN.)SOLID_ANGLE_UNIT());
#63=(LENGTH_UNIT()NAMED_UNIT(*)SI_UNIT(.MILLI.,.METRE.));
#65=UNCERTAINTY_MEASURE_WITH_UNIT(LENGTH_MEASURE(0.000001),#63,'DISTANCE_ACCURACY_VALUE','');
#67=(GEOMETRIC_REPRESENTATION_CONTEXT(3)GLOBAL_UNCERTAINTY_ASSIGNED_CONTEXT((#65))GLOBAL_UNIT_ASSIGNED_CONTEXT((#55,#59,#63))REPRESENTATION_CONTEXT('','3D'));
#68=CARTESIAN_POINT('',(-4.032938067273122,49.999999999999972,10.088627902761509));
#69=DIRECTION('',(0.858853983997622,0.0,0.512220493705018));
#70=DIRECTION('',(0.512220493705018,0.0,-0.858853983997622));
#71=AXIS2_PLACEMENT_3D('',#68,#69,#70);
#72=PLANE('',#71);
#73=CARTESIAN_POINT('',(-4.032938067273122,-49.999999999999993,10.088627902761509));
#74=VERTEX_POINT('',#73);
#75=CARTESIAN_POINT('',(2.180921607372852,-49.999999999999993,-0.330319021773811));
#76=VERTEX_POINT('',#75);
#77=CARTESIAN_POINT('',(-4.032938067273123,-50.000000000000028,10.088627902761511));
#78=DIRECTION('',(0.512220493705018,0.0,-0.858853983997622));
#79=VECTOR('',#78,12.131220345557796);
#80=LINE('',#77,#79);
#81=EDGE_CURVE('',#74,#76,#80,.T.);
#82=ORIENTED_EDGE('',*,*,#81,.T.);
#83=CARTESIAN_POINT('',(2.180921607372852,49.999999999999972,-0.330319021773811));
#84=VERTEX_POINT('',#83);
#85=CARTESIAN_POINT('',(2.180921607372852,49.999999999999972,-0.330319021773811));
#86=DIRECTION('',(0.0,-1.0,0.0));
#87=VECTOR('',#86,99.999999999999972);
#88=LINE('',#85,#87);
#89=EDGE_CURVE('',#84,#76,#88,.T.);
#90=ORIENTED_EDGE('',*,*,#89,.F.);
#91=CARTESIAN_POINT('',(-4.032938067273122,49.999999999999972,10.088627902761509));
#92=VERTEX_POINT('',#91);
#93=CARTESIAN_POINT('',(2.180921607372852,49.999999999999972,-0.330319021773811));
#94=DIRECTION('',(-0.512220493705018,0.0,0.858853983997622));
#95=VECTOR('',#94,12.131220345557796);
#96=LINE('',#93,#95);
#97=EDGE_CURVE('',#84,#92,#96,.T.);
#98=ORIENTED_EDGE('',*,*,#97,.T.);
#99=CARTESIAN_POINT('',(-4.032938067273122,49.999999999999972,10.088627902761509));
#100=DIRECTION('',(0.0,-1.0,0.0));
#101=VECTOR('',#100,99.999999999999972);
#102=LINE('',#99,#101);
#103=EDGE_CURVE('',#92,#74,#102,.T.);
#104=ORIENTED_EDGE('',*,*,#103,.T.);
#105=EDGE_LOOP('',(#82,#90,#98,#104));
#106=FACE_OUTER_BOUND('',#105,.T.);
#107=ADVANCED_FACE('',(#106),#72,.T.);
#108=CARTESIAN_POINT('',(1.322067623375247,49.999999999999972,-0.842539515478844));
#109=DIRECTION('',(0.0,-1.0,0.0));
#110=DIRECTION('',(-0.500000000000015,0.0,-0.86602540378443));
#111=AXIS2_PLACEMENT_3D('',#108,#109,#110);
#112=CYLINDRICAL_SURFACE('',#111,1.0);
#113=CARTESIAN_POINT('',(0.82206762337524,-49.999999999999993,-1.70856491926326));
#114=VERTEX_POINT('',#113);
#115=CARTESIAN_POINT('',(1.322067623375247,-50.000000000000028,-0.842539515478844));
#116=DIRECTION('',(0.0,1.0,0.0));
#117=DIRECTION('',(-0.500000000000015,0.0,-0.86602540378443));
#118=AXIS2_PLACEMENT_3D('',#115,#116,#117);
#119=CIRCLE('',#118,1.0);
#120=EDGE_CURVE('',#76,#114,#119,.T.);
#121=ORIENTED_EDGE('',*,*,#120,.T.);
#122=CARTESIAN_POINT('',(0.82206762337524,49.999999999999972,-1.70856491926326));
#123=VERTEX_POINT('',#122);
#124=CARTESIAN_POINT('',(0.82206762337524,49.999999999999972,-1.70856491926326));
#125=DIRECTION('',(0.0,-1.0,0.0));
#126=VECTOR('',#125,99.999999999999972);
#127=LINE('',#124,#126);
#128=EDGE_CURVE('',#123,#114,#127,.T.);
#129=ORIENTED_EDGE('',*,*,#128,.F.);
#130=CARTESIAN_POINT('',(1.322067623375247,49.999999999999972,-0.842539515478844));
#131=DIRECTION('',(0.0,-1.0,0.0));
#132=DIRECTION('',(-0.500000000000015,0.0,-0.86602540378443));
#133=AXIS2_PLACEMENT_3D('',#130,#131,#132);
#134=CIRCLE('',#133,1.0);
#135=EDGE_CURVE('',#123,#84,#134,.T.);
#136=ORIENTED_EDGE('',*,*,#135,.T.);
#137=ORIENTED_EDGE('',*,*,#89,.T.);
#138=EDGE_LOOP('',(#121,#129,#136,#137));
#139=FACE_OUTER_BOUND('',#138,.T.);
#140=ADVANCED_FACE('',(#139),#112,.T.);
#141=CARTESIAN_POINT('',(0.82206762337524,49.999999999999972,-1.70856491926326));
#142=DIRECTION('',(-0.499999999999988,0.0,-0.866025403784445));
#143=DIRECTION('',(-0.866025403784445,0.0,0.499999999999988));
#144=AXIS2_PLACEMENT_3D('',#141,#142,#143);
#145=PLANE('',#144);
#146=CARTESIAN_POINT('',(0.108207948729273,-49.999999999999993,-1.296417843942805));
#147=VERTEX_POINT('',#146);
#148=CARTESIAN_POINT('',(0.82206762337524,-50.000000000000028,-1.70856491926326));
#149=DIRECTION('',(-0.866025403784445,0.0,0.499999999999988));
#150=VECTOR('',#149,0.824294150640929);
#151=LINE('',#148,#150);
#152=EDGE_CURVE('',#114,#147,#151,.T.);
#153=ORIENTED_EDGE('',*,*,#152,.T.);
#154=CARTESIAN_POINT('',(0.108207948729273,49.999999999999972,-1.296417843942805));
#155=VERTEX_POINT('',#154);
#156=CARTESIAN_POINT('',(0.108207948729273,49.999999999999972,-1.296417843942805));
#157=DIRECTION('',(0.0,-1.0,0.0));
#158=VECTOR('',#157,99.999999999999972);
#159=LINE('',#156,#158);
#160=EDGE_CURVE('',#155,#147,#159,.T.);
#161=ORIENTED_EDGE('',*,*,#160,.F.);
#162=CARTESIAN_POINT('',(0.108207948729273,49.999999999999972,-1.296417843942805));
#163=DIRECTION('',(0.866025403784445,0.0,-0.499999999999988));
#164=VECTOR('',#163,0.824294150640929);
#165=LINE('',#162,#164);
#166=EDGE_CURVE('',#155,#123,#165,.T.);
#167=ORIENTED_EDGE('',*,*,#166,.T.);
#168=ORIENTED_EDGE('',*,*,#128,.T.);
#169=EDGE_LOOP('',(#153,#161,#167,#168));
#170=FACE_OUTER_BOUND('',#169,.T.);
#171=ADVANCED_FACE('',(#170),#145,.T.);
#172=CARTESIAN_POINT('',(-0.391792051270734,49.999999999999972,-2.162443247727222));
#173=DIRECTION('',(0.0,-1.0,0.0));
#174=DIRECTION('',(-0.500000000000015,0.0,-0.86602540378443));
#175=AXIS2_PLACEMENT_3D('',#172,#173,#174);
#176=CYLINDRICAL_SURFACE('',#175,0.999999999999984);
#177=CARTESIAN_POINT('',(-1.391792051270713,-49.999999999999993,-2.162443247727239));
#178=VERTEX_POINT('',#177);
#179=CARTESIAN_POINT('',(-0.391792051270734,-50.000000000000028,-2.162443247727222));
#180=DIRECTION('',(0.0,-1.0,0.0));
#181=DIRECTION('',(-0.500000000000015,0.0,-0.86602540378443));
#182=AXIS2_PLACEMENT_3D('',#179,#180,#181);
#183=CIRCLE('',#182,0.999999999999984);
#184=EDGE_CURVE('',#147,#178,#183,.T.);
#185=ORIENTED_EDGE('',*,*,#184,.T.);
#186=CARTESIAN_POINT('',(-1.391792051270713,49.999999999999972,-2.162443247727239));
#187=VERTEX_POINT('',#186);
#188=CARTESIAN_POINT('',(-1.391792051270713,49.999999999999972,-2.162443247727239));
#189=DIRECTION('',(0.0,-1.0,0.0));
#190=VECTOR('',#189,99.999999999999972);
#191=LINE('',#188,#190);
#192=EDGE_CURVE('',#187,#178,#191,.T.);
#193=ORIENTED_EDGE('',*,*,#192,.F.);
#194=CARTESIAN_POINT('',(-0.391792051270734,49.999999999999972,-2.162443247727222));
#195=DIRECTION('',(0.0,1.0,0.0));
#196=DIRECTION('',(-0.500000000000015,0.0,-0.86602540378443));
#197=AXIS2_PLACEMENT_3D('',#194,#195,#196);
#198=CIRCLE('',#197,0.999999999999984);
#199=EDGE_CURVE('',#187,#155,#198,.T.);
#200=ORIENTED_EDGE('',*,*,#199,.T.);
#201=ORIENTED_EDGE('',*,*,#160,.T.);
#202=EDGE_LOOP('',(#185,#193,#200,#201));
#203=FACE_OUTER_BOUND('',#202,.T.);
#204=ADVANCED_FACE('',(#203),#176,.F.);
#205=CARTESIAN_POINT('',(-1.391792051270713,49.999999999999972,-2.162443247727239));
#206=DIRECTION('',(1.0,0.0,0.0));
#207=DIRECTION('',(0.0,0.0,-1.0));
#208=AXIS2_PLACEMENT_3D('',#205,#206,#207);
#209=PLANE('',#208);
#210=CARTESIAN_POINT('',(-1.391792051270713,-49.999999999999993,-4.524632069052252));
#211=VERTEX_POINT('',#210);
#212=CARTESIAN_POINT('',(-1.391792051270713,-50.000000000000028,-2.162443247727239));
#213=DIRECTION('',(0.0,0.0,-1.0));
#214=VECTOR('',#213,2.362188821325013);
#215=LINE('',#212,#214);
#216=EDGE_CURVE('',#178,#211,#215,.T.);
#217=ORIENTED_EDGE('',*,*,#216,.T.);
#218=CARTESIAN_POINT('',(-1.391792051270713,49.999999999999972,-4.524632069052252));
#219=VERTEX_POINT('',#218);
#220=CARTESIAN_POINT('',(-1.391792051270713,49.999999999999972,-4.524632069052252));
#221=DIRECTION('',(0.0,-1.0,0.0));
#222=VECTOR('',#221,99.999999999999972);
#223=LINE('',#220,#222);
#224=EDGE_CURVE('',#219,#211,#223,.T.);
#225=ORIENTED_EDGE('',*,*,#224,.F.);
#226=CARTESIAN_POINT('',(-1.391792051270713,49.999999999999972,-4.524632069052252));
#227=DIRECTION('',(0.0,0.0,1.0));
#228=VECTOR('',#227,2.362188821325013);
#229=LINE('',#226,#228);
#230=EDGE_CURVE('',#219,#187,#229,.T.);
#231=ORIENTED_EDGE('',*,*,#230,.T.);
#232=ORIENTED_EDGE('',*,*,#192,.T.);
#233=EDGE_LOOP('',(#217,#225,#231,#232));
#234=FACE_OUTER_BOUND('',#233,.T.);
#235=ADVANCED_FACE('',(#234),#209,.T.);
#236=CARTESIAN_POINT('',(-0.391792051270805,49.999999999999972,-4.524632069052306));
#237=DIRECTION('',(0.0,-1.0,0.0));
#238=DIRECTION('',(1.0,0.0,0.0));
#239=AXIS2_PLACEMENT_3D('',#236,#237,#238);
#240=CYLINDRICAL_SURFACE('',#239,0.999999999999908);
#241=CARTESIAN_POINT('',(-0.622561282039982,-49.999999999999993,-5.497640579873284));
#242=VERTEX_POINT('',#241);
#243=CARTESIAN_POINT('',(-0.391792051270805,-50.000000000000028,-4.524632069052306));
#244=DIRECTION('',(0.0,-1.0,0.0));
#245=DIRECTION('',(1.0,0.0,0.0));
#246=AXIS2_PLACEMENT_3D('',#243,#244,#245);
#247=CIRCLE('',#246,0.999999999999908);
#248=EDGE_CURVE('',#211,#242,#247,.T.);
#249=ORIENTED_EDGE('',*,*,#248,.T.);
#250=CARTESIAN_POINT('',(-0.622561282039982,49.999999999999972,-5.497640579873284));
#251=VERTEX_POINT('',#250);
#252=CARTESIAN_POINT('',(-0.622561282039982,49.999999999999972,-5.497640579873284));
#253=DIRECTION('',(0.0,-1.0,0.0));
#254=VECTOR('',#253,99.999999999999972);
#255=LINE('',#252,#254);
#256=EDGE_CURVE('',#251,#242,#255,.T.);
#257=ORIENTED_EDGE('',*,*,#256,.F.);
#258=CARTESIAN_POINT('',(-0.391792051270805,49.999999999999972,-4.524632069052306));
#259=DIRECTION('',(0.0,1.0,0.0));
#260=DIRECTION('',(1.0,0.0,0.0));
#261=AXIS2_PLACEMENT_3D('',#258,#259,#260);
#262=CIRCLE('',#261,0.999999999999908);
#263=EDGE_CURVE('',#251,#219,#262,.T.);
#264=ORIENTED_EDGE('',*,*,#263,.T.);
#265=ORIENTED_EDGE('',*,*,#224,.T.);
#266=EDGE_LOOP('',(#249,#257,#264,#265));
#267=FACE_OUTER_BOUND('',#266,.T.);
#268=ADVANCED_FACE('',(#267),#240,.F.);
#269=CARTESIAN_POINT('',(-0.691792051270781,49.999999999999972,-5.789543133119643));
#270=DIRECTION('',(0.0,-1.0,0.0));
#271=DIRECTION('',(1.0,0.0,2.368476E-013));
#272=AXIS2_PLACEMENT_3D('',#269,#270,#271);
#273=CYLINDRICAL_SURFACE('',#272,0.300000000000047);
#274=CARTESIAN_POINT('',(-0.391792051270734,-49.999999999999993,-5.789543133119572));
#275=VERTEX_POINT('',#274);
#276=CARTESIAN_POINT('',(-0.691792051270781,-50.000000000000028,-5.789543133119643));
#277=DIRECTION('',(0.0,1.0,0.0));
#278=DIRECTION('',(1.0,0.0,2.368476E-013));
#279=AXIS2_PLACEMENT_3D('',#276,#277,#278);
#280=CIRCLE('',#279,0.300000000000047);
#281=EDGE_CURVE('',#242,#275,#280,.T.);
#282=ORIENTED_EDGE('',*,*,#281,.T.);
#283=CARTESIAN_POINT('',(-0.391792051270734,49.999999999999972,-5.789543133119572));
#284=VERTEX_POINT('',#283);
#285=CARTESIAN_POINT('',(-0.391792051270734,49.999999999999972,-5.789543133119572));
#286=DIRECTION('',(0.0,-1.0,0.0));
#287=VECTOR('',#286,99.999999999999972);
#288=LINE('',#285,#287);
#289=EDGE_CURVE('',#284,#275,#288,.T.);
#290=ORIENTED_EDGE('',*,*,#289,.F.);
#291=CARTESIAN_POINT('',(-0.691792051270781,49.999999999999972,-5.789543133119643));
#292=DIRECTION('',(0.0,-1.0,0.0));
#293=DIRECTION('',(1.0,0.0,2.368476E-013));
#294=AXIS2_PLACEMENT_3D('',#291,#292,#293);
#295=CIRCLE('',#294,0.300000000000047);
#296=EDGE_CURVE('',#284,#251,#295,.T.);
#297=ORIENTED_EDGE('',*,*,#296,.T.);
#298=ORIENTED_EDGE('',*,*,#256,.T.);
#299=EDGE_LOOP('',(#282,#290,#297,#298));
#300=FACE_OUTER_BOUND('',#299,.T.);
#301=ADVANCED_FACE('',(#300),#273,.T.);
#302=CARTESIAN_POINT('',(-0.391792051270734,49.999999999999972,-5.789543133119572));
#303=DIRECTION('',(1.0,0.0,0.0));
#304=DIRECTION('',(0.0,0.0,-1.0));
#305=AXIS2_PLACEMENT_3D('',#302,#303,#304);
#306=PLANE('',#305);
#307=CARTESIAN_POINT('',(-0.391792051270734,-49.999999999999993,-6.489543133119611));
#308=VERTEX_POINT('',#307);
#309=CARTESIAN_POINT('',(-0.391792051270734,-50.000000000000028,-5.789543133119572));
#310=DIRECTION('',(0.0,0.0,-1.0));
#311=VECTOR('',#310,0.700000000000038);
#312=LINE('',#309,#311);
#313=EDGE_CURVE('',#275,#308,#312,.T.);
#314=ORIENTED_EDGE('',*,*,#313,.T.);
#315=CARTESIAN_POINT('',(-0.391792051270734,49.999999999999972,-6.489543133119611));
#316=VERTEX_POINT('',#315);
#317=CARTESIAN_POINT('',(-0.391792051270734,49.999999999999972,-6.489543133119611));
#318=DIRECTION('',(0.0,-1.0,0.0));
#319=VECTOR('',#318,99.999999999999972);
#320=LINE('',#317,#319);
#321=EDGE_CURVE('',#316,#308,#320,.T.);
#322=ORIENTED_EDGE('',*,*,#321,.F.);
#323=CARTESIAN_POINT('',(-0.391792051270734,49.999999999999972,-6.489543133119611));
#324=DIRECTION('',(0.0,0.0,1.0));
#325=VECTOR('',#324,0.700000000000038);
#326=LINE('',#323,#325);
#327=EDGE_CURVE('',#316,#284,#326,.T.);
#328=ORIENTED_EDGE('',*,*,#327,.T.);
#329=ORIENTED_EDGE('',*,*,#289,.T.);
#330=EDGE_LOOP('',(#314,#322,#328,#329));
#331=FACE_OUTER_BOUND('',#330,.T.);
#332=ADVANCED_FACE('',(#331),#306,.T.);
#333=CARTESIAN_POINT('',(-1.391792051270677,49.999999999999972,-6.489543133119664));
#334=DIRECTION('',(0.0,-1.0,0.0));
#335=DIRECTION('',(0.0,0.0,-1.0));
#336=AXIS2_PLACEMENT_3D('',#333,#334,#335);
#337=CYLINDRICAL_SURFACE('',#336,0.999999999999943);
#338=CARTESIAN_POINT('',(-1.391792051270713,-49.999999999999993,-7.489543133119607));
#339=VERTEX_POINT('',#338);
#340=CARTESIAN_POINT('',(-1.391792051270677,-50.000000000000028,-6.489543133119664));
#341=DIRECTION('',(0.0,1.0,0.0));
#342=DIRECTION('',(0.0,0.0,-1.0));
#343=AXIS2_PLACEMENT_3D('',#340,#341,#342);
#344=CIRCLE('',#343,0.999999999999943);
#345=EDGE_CURVE('',#308,#339,#344,.T.);
#346=ORIENTED_EDGE('',*,*,#345,.T.);
#347=CARTESIAN_POINT('',(-1.391792051270713,49.999999999999972,-7.489543133119607));
#348=VERTEX_POINT('',#347);
#349=CARTESIAN_POINT('',(-1.391792051270713,49.999999999999972,-7.489543133119607));
#350=DIRECTION('',(0.0,-1.0,0.0));
#351=VECTOR('',#350,99.999999999999972);
#352=LINE('',#349,#351);
#353=EDGE_CURVE('',#348,#339,#352,.T.);
#354=ORIENTED_EDGE('',*,*,#353,.F.);
#355=CARTESIAN_POINT('',(-1.391792051270677,49.999999999999972,-6.489543133119664));
#356=DIRECTION('',(0.0,-1.0,0.0));
#357=DIRECTION('',(0.0,0.0,-1.0));
#358=AXIS2_PLACEMENT_3D('',#355,#356,#357);
#359=CIRCLE('',#358,0.999999999999943);
#360=EDGE_CURVE('',#348,#316,#359,.T.);
#361=ORIENTED_EDGE('',*,*,#360,.T.);
#362=ORIENTED_EDGE('',*,*,#321,.T.);
#363=EDGE_LOOP('',(#346,#354,#361,#362));
#364=FACE_OUTER_BOUND('',#363,.T.);
#365=ADVANCED_FACE('',(#364),#337,.T.);
#366=CARTESIAN_POINT('',(-1.391792051270713,49.999999999999972,-7.489543133119607));
#367=DIRECTION('',(0.0,0.0,-1.0));
#368=DIRECTION('',(-1.0,0.0,0.0));
#369=AXIS2_PLACEMENT_3D('',#366,#367,#368);
#370=PLANE('',#369);
#371=CARTESIAN_POINT('',(-4.891792051270762,-49.999999999999993,-7.489543133119589));
#372=VERTEX_POINT('',#371);
#373=CARTESIAN_POINT('',(-1.391792051270713,-50.000000000000028,-7.489543133119607));
#374=DIRECTION('',(-1.0,0.0,0.0));
#375=VECTOR('',#374,3.50000000000005);
#376=LINE('',#373,#375);
#377=EDGE_CURVE('',#339,#372,#376,.T.);
#378=ORIENTED_EDGE('',*,*,#377,.T.);
#379=CARTESIAN_POINT('',(-4.891792051270762,49.999999999999972,-7.489543133119589));
#380=VERTEX_POINT('',#379);
#381=CARTESIAN_POINT('',(-4.891792051270762,49.999999999999972,-7.489543133119589));
#382=DIRECTION('',(0.0,-1.0,0.0));
#383=VECTOR('',#382,99.999999999999972);
#384=LINE('',#381,#383);
#385=EDGE_CURVE('',#380,#372,#384,.T.);
#386=ORIENTED_EDGE('',*,*,#385,.F.);
#387=CARTESIAN_POINT('',(-4.891792051270762,49.999999999999972,-7.489543133119589));
#388=DIRECTION('',(1.0,0.0,0.0));
#389=VECTOR('',#388,3.50000000000005);
#390=LINE('',#387,#389);
#391=EDGE_CURVE('',#380,#348,#390,.T.);
#392=ORIENTED_EDGE('',*,*,#391,.T.);
#393=ORIENTED_EDGE('',*,*,#353,.T.);
#394=EDGE_LOOP('',(#378,#386,#392,#393));
#395=FACE_OUTER_BOUND('',#394,.T.);
#396=ADVANCED_FACE('',(#395),#370,.T.);
#397=CARTESIAN_POINT('',(-4.891792051270762,49.999999999999972,-6.489543133119611));
#398=DIRECTION('',(0.0,-1.0,0.0));
#399=DIRECTION('',(-1.0,0.0,0.0));
#400=AXIS2_PLACEMENT_3D('',#397,#398,#399);
#401=CYLINDRICAL_SURFACE('',#400,0.999999999999979);
#402=CARTESIAN_POINT('',(-5.891792051270741,-49.999999999999993,-6.489543133119593));
#403=VERTEX_POINT('',#402);
#404=CARTESIAN_POINT('',(-4.891792051270762,-50.000000000000028,-6.489543133119611));
#405=DIRECTION('',(0.0,1.0,0.0));
#406=DIRECTION('',(-1.0,0.0,0.0));
#407=AXIS2_PLACEMENT_3D('',#404,#405,#406);
#408=CIRCLE('',#407,0.999999999999979);
#409=EDGE_CURVE('',#372,#403,#408,.T.);
#410=ORIENTED_EDGE('',*,*,#409,.T.);
#411=CARTESIAN_POINT('',(-5.891792051270741,49.999999999999972,-6.489543133119593));
#412=VERTEX_POINT('',#411);
#413=CARTESIAN_POINT('',(-5.891792051270741,49.999999999999972,-6.489543133119593));
#414=DIRECTION('',(0.0,-1.0,0.0));
#415=VECTOR('',#414,99.999999999999972);
#416=LINE('',#413,#415);
#417=EDGE_CURVE('',#412,#403,#416,.T.);
#418=ORIENTED_EDGE('',*,*,#417,.F.);
#419=CARTESIAN_POINT('',(-4.891792051270762,49.999999999999972,-6.489543133119611));
#420=DIRECTION('',(0.0,-1.0,0.0));
#421=DIRECTION('',(-1.0,0.0,0.0));
#422=AXIS2_PLACEMENT_3D('',#419,#420,#421);
#423=CIRCLE('',#422,0.999999999999979);
#424=EDGE_CURVE('',#412,#380,#423,.T.);
#425=ORIENTED_EDGE('',*,*,#424,.T.);
#426=ORIENTED_EDGE('',*,*,#385,.T.);
#427=EDGE_LOOP('',(#410,#418,#425,#426));
#428=FACE_OUTER_BOUND('',#427,.T.);
#429=ADVANCED_FACE('',(#428),#401,.T.);
#430=CARTESIAN_POINT('',(-5.891792051270741,49.999999999999972,-6.489543133119593));
#431=DIRECTION('',(-1.0,0.0,0.0));
#432=DIRECTION('',(0.0,0.0,1.0));
#433=AXIS2_PLACEMENT_3D('',#430,#431,#432);
#434=PLANE('',#433);
#435=CARTESIAN_POINT('',(-5.891792051270741,-49.999999999999993,9.576407409056493));
#436=VERTEX_POINT('',#435);
#437=CARTESIAN_POINT('',(-5.891792051270741,-50.000000000000028,-6.489543133119593));
#438=DIRECTION('',(0.0,0.0,1.0));
#439=VECTOR('',#438,16.065950542176086);
#440=LINE('',#437,#439);
#441=EDGE_CURVE('',#403,#436,#440,.T.);
#442=ORIENTED_EDGE('',*,*,#441,.T.);
#443=CARTESIAN_POINT('',(-5.891792051270741,49.999999999999972,9.576407409056493));
#444=VERTEX_POINT('',#443);
#445=CARTESIAN_POINT('',(-5.891792051270741,49.999999999999972,9.576407409056493));
#446=DIRECTION('',(0.0,-1.0,0.0));
#447=VECTOR('',#446,99.999999999999972);
#448=LINE('',#445,#447);
#449=EDGE_CURVE('',#444,#436,#448,.T.);
#450=ORIENTED_EDGE('',*,*,#449,.F.);
#451=CARTESIAN_POINT('',(-5.891792051270741,49.999999999999972,9.576407409056493));
#452=DIRECTION('',(0.0,0.0,-1.0));
#453=VECTOR('',#452,16.065950542176086);
#454=LINE('',#451,#453);
#455=EDGE_CURVE('',#444,#412,#454,.T.);
#456=ORIENTED_EDGE('',*,*,#455,.T.);
#457=ORIENTED_EDGE('',*,*,#417,.T.);
#458=EDGE_LOOP('',(#442,#450,#456,#457));
#459=FACE_OUTER_BOUND('',#458,.T.);
#460=ADVANCED_FACE('',(#459),#434,.T.);
#461=CARTESIAN_POINT('',(-4.891792051270727,49.999999999999972,9.576407409056493));
#462=DIRECTION('',(0.0,-1.0,0.0));
#463=DIRECTION('',(0.858853983997619,0.0,0.512220493705024));
#464=AXIS2_PLACEMENT_3D('',#461,#462,#463);
#465=CYLINDRICAL_SURFACE('',#464,0.999999999999984);
#466=CARTESIAN_POINT('',(-4.891792051270727,-50.000000000000028,9.576407409056493));
#467=DIRECTION('',(0.0,1.0,0.0));
#468=DIRECTION('',(0.858853983997619,0.0,0.512220493705024));
#469=AXIS2_PLACEMENT_3D('',#466,#467,#468);
#470=CIRCLE('',#469,0.999999999999984);
#471=EDGE_CURVE('',#436,#74,#470,.T.);
#472=ORIENTED_EDGE('',*,*,#471,.T.);
#473=ORIENTED_EDGE('',*,*,#103,.F.);
#474=CARTESIAN_POINT('',(-4.891792051270727,49.999999999999972,9.576407409056493));
#475=DIRECTION('',(0.0,-1.0,0.0));
#476=DIRECTION('',(0.858853983997619,0.0,0.512220493705024));
#477=AXIS2_PLACEMENT_3D('',#474,#475,#476);
#478=CIRCLE('',#477,0.999999999999984);
#479=EDGE_CURVE('',#92,#444,#478,.T.);
#480=ORIENTED_EDGE('',*,*,#479,.T.);
#481=ORIENTED_EDGE('',*,*,#449,.T.);
#482=EDGE_LOOP('',(#472,#473,#480,#481));
#483=FACE_OUTER_BOUND('',#482,.T.);
#484=ADVANCED_FACE('',(#483),#465,.T.);
#485=CARTESIAN_POINT('',(-2.964973605442317,49.999999999999993,0.691031577310295));
#486=DIRECTION('',(0.0,1.0,0.0));
#487=DIRECTION('',(0.0,0.0,1.0));
#488=AXIS2_PLACEMENT_3D('',#485,#486,#487);
#489=PLANE('',#488);
#490=ORIENTED_EDGE('',*,*,#479,.F.);
#491=ORIENTED_EDGE('',*,*,#97,.F.);
#492=ORIENTED_EDGE('',*,*,#135,.F.);
#493=ORIENTED_EDGE('',*,*,#166,.F.);
#494=ORIENTED_EDGE('',*,*,#199,.F.);
#495=ORIENTED_EDGE('',*,*,#230,.F.);
#496=ORIENTED_EDGE('',*,*,#263,.F.);
#497=ORIENTED_EDGE('',*,*,#296,.F.);
#498=ORIENTED_EDGE('',*,*,#327,.F.);
#499=ORIENTED_EDGE('',*,*,#360,.F.);
#500=ORIENTED_EDGE('',*,*,#391,.F.);
#501=ORIENTED_EDGE('',*,*,#424,.F.);
#502=ORIENTED_EDGE('',*,*,#455,.F.);
#503=EDGE_LOOP('',(#490,#491,#492,#493,#494,#495,#496,#497,#498,#499,#500,#501,#502));
#504=FACE_OUTER_BOUND('',#503,.T.);
#505=ADVANCED_FACE('',(#504),#489,.T.);
#506=CARTESIAN_POINT('',(-2.964973605442317,-50.0,0.691031577310295));
#507=DIRECTION('',(0.0,1.0,0.0));
#508=DIRECTION('',(0.0,0.0,1.0));
#509=AXIS2_PLACEMENT_3D('',#506,#507,#508);
#510=PLANE('',#509);
#511=ORIENTED_EDGE('',*,*,#81,.F.);
#512=ORIENTED_EDGE('',*,*,#471,.F.);
#513=ORIENTED_EDGE('',*,*,#441,.F.);
#514=ORIENTED_EDGE('',*,*,#409,.F.);
#515=ORIENTED_EDGE('',*,*,#377,.F.);
#516=ORIENTED_EDGE('',*,*,#345,.F.);
#517=ORIENTED_EDGE('',*,*,#313,.F.);
#518=ORIENTED_EDGE('',*,*,#281,.F.);
#519=ORIENTED_EDGE('',*,*,#248,.F.);
#520=ORIENTED_EDGE('',*,*,#216,.F.);
#521=ORIENTED_EDGE('',*,*,#184,.F.);
#522=ORIENTED_EDGE('',*,*,#152,.F.);
#523=ORIENTED_EDGE('',*,*,#120,.F.);
#524=EDGE_LOOP('',(#511,#512,#513,#514,#515,#516,#517,#518,#519,#520,#521,#522,#523));
#525=FACE_OUTER_BOUND('',#524,.T.);
#526=ADVANCED_FACE('',(#525),#510,.F.);
#527=CLOSED_SHELL('',(#107,#140,#171,#204,#235,#268,#301,#332,#365,#396,#429,#460,#484,#505,#526));
#528=MANIFOLD_SOLID_BREP('Volumenk\S\vrper1',#527);
#529=DRAUGHTING_PRE_DEFINED_COLOUR('black');
#530=FILL_AREA_STYLE_COLOUR('Schwarz',#529);
#531=FILL_AREA_STYLE('Schwarz',(#530));
#532=SURFACE_STYLE_FILL_AREA(#531);
#533=SURFACE_SIDE_STYLE('Schwarz',(#532));
#534=SURFACE_STYLE_USAGE(.BOTH.,#533);
#535=PRESENTATION_STYLE_ASSIGNMENT((#534));
#536=STYLED_ITEM('',(#535),#528);
#537=MECHANICAL_DESIGN_GEOMETRIC_PRESENTATION_REPRESENTATION('',(#536),#36);
#538=ADVANCED_BREP_SHAPE_REPRESENTATION('ABSR',(#528),#36);
#539=SHAPE_REPRESENTATION_RELATIONSHIP('SRR','None',#538,#41);
ENDSEC;
END-ISO-10303-21;
