ISO-10303-21;
HEADER;
/* Generated by software containing ST-Developer
 * from STEP Tools, Inc. (www.steptools.com) 
 */

FILE_DESCRIPTION(
/* description */ ('Handgriff AL120 gebogen'),
/* implementation_level */ '2;1');

FILE_NAME(
/* name */ 
'T:\\Produktinformationen\\MT\\B45\\3D-Files B45\\Handgriff\\Syskomp 4
02750101 Handgriff AL120 gebogen.stp',
/* time_stamp */ '2018-06-05T15:48:38+02:00',
/* author */ ('wheldmann'),
/* organization */ (''),
/* preprocessor_version */ 'ST-DEVELOPER v16.1',
/* originating_system */ 'Autodesk Inventor 2016',
/* authorisation */ '');

FILE_SCHEMA (('AUTOMOTIVE_DESIGN { 1 0 10303 214 3 1 1 }'));
ENDSEC;

DATA;
#10=MECHANICAL_DESIGN_GEOMETRIC_PRESENTATION_REPRESENTATION('',(#13),#319);
#11=SHAPE_REPRESENTATION_RELATIONSHIP('SRR','None',#328,#12);
#12=ADVANCED_BREP_SHAPE_REPRESENTATION('',(#14),#318);
#13=STYLED_ITEM('',(#338),#14);
#14=MANIFOLD_SOLID_BREP('Volumenk\X\F6rper1',#176);
#15=PLANE('',#206);
#16=PLANE('',#207);
#17=TOROIDAL_SURFACE('',#186,17.,5.);
#18=TOROIDAL_SURFACE('',#189,17.,5.);
#19=TOROIDAL_SURFACE('',#193,17.,5.);
#20=TOROIDAL_SURFACE('',#196,17.,5.);
#21=FACE_BOUND('',#58,.T.);
#22=FACE_BOUND('',#61,.T.);
#23=FACE_BOUND('',#63,.T.);
#24=FACE_BOUND('',#65,.T.);
#25=FACE_BOUND('',#67,.T.);
#26=FACE_BOUND('',#69,.T.);
#27=FACE_BOUND('',#71,.T.);
#28=FACE_BOUND('',#73,.T.);
#29=FACE_BOUND('',#75,.T.);
#30=FACE_BOUND('',#77,.T.);
#31=FACE_BOUND('',#79,.T.);
#32=FACE_BOUND('',#81,.T.);
#33=FACE_BOUND('',#83,.T.);
#34=CYLINDRICAL_SURFACE('',#180,2.067);
#35=CYLINDRICAL_SURFACE('',#184,2.067);
#36=CYLINDRICAL_SURFACE('',#199,5.);
#37=CYLINDRICAL_SURFACE('',#201,5.);
#38=CYLINDRICAL_SURFACE('',#202,5.);
#39=CYLINDRICAL_SURFACE('',#203,5.);
#40=CYLINDRICAL_SURFACE('',#204,5.);
#41=FACE_OUTER_BOUND('',#56,.T.);
#42=FACE_OUTER_BOUND('',#57,.T.);
#43=FACE_OUTER_BOUND('',#59,.T.);
#44=FACE_OUTER_BOUND('',#60,.T.);
#45=FACE_OUTER_BOUND('',#62,.T.);
#46=FACE_OUTER_BOUND('',#64,.T.);
#47=FACE_OUTER_BOUND('',#66,.T.);
#48=FACE_OUTER_BOUND('',#68,.T.);
#49=FACE_OUTER_BOUND('',#70,.T.);
#50=FACE_OUTER_BOUND('',#72,.T.);
#51=FACE_OUTER_BOUND('',#74,.T.);
#52=FACE_OUTER_BOUND('',#76,.T.);
#53=FACE_OUTER_BOUND('',#78,.T.);
#54=FACE_OUTER_BOUND('',#80,.T.);
#55=FACE_OUTER_BOUND('',#82,.T.);
#56=EDGE_LOOP('',(#129));
#57=EDGE_LOOP('',(#130));
#58=EDGE_LOOP('',(#131));
#59=EDGE_LOOP('',(#132));
#60=EDGE_LOOP('',(#133));
#61=EDGE_LOOP('',(#134));
#62=EDGE_LOOP('',(#135));
#63=EDGE_LOOP('',(#136));
#64=EDGE_LOOP('',(#137,#138));
#65=EDGE_LOOP('',(#139));
#66=EDGE_LOOP('',(#140));
#67=EDGE_LOOP('',(#141));
#68=EDGE_LOOP('',(#142));
#69=EDGE_LOOP('',(#143));
#70=EDGE_LOOP('',(#144));
#71=EDGE_LOOP('',(#145));
#72=EDGE_LOOP('',(#146,#147));
#73=EDGE_LOOP('',(#148));
#74=EDGE_LOOP('',(#149));
#75=EDGE_LOOP('',(#150));
#76=EDGE_LOOP('',(#151));
#77=EDGE_LOOP('',(#152));
#78=EDGE_LOOP('',(#153));
#79=EDGE_LOOP('',(#154));
#80=EDGE_LOOP('',(#155));
#81=EDGE_LOOP('',(#156));
#82=EDGE_LOOP('',(#157));
#83=EDGE_LOOP('',(#158));
#84=CIRCLE('',#179,2.067);
#85=CIRCLE('',#181,2.067);
#86=CIRCLE('',#183,2.067);
#87=CIRCLE('',#185,2.067);
#88=CIRCLE('',#187,5.);
#89=CIRCLE('',#188,5.);
#90=CIRCLE('',#190,5.);
#91=CIRCLE('',#191,5.);
#92=CIRCLE('',#192,5.);
#93=CIRCLE('',#194,5.);
#94=CIRCLE('',#195,5.);
#95=CIRCLE('',#197,5.);
#96=CIRCLE('',#198,5.);
#97=CIRCLE('',#200,5.);
#98=CIRCLE('',#205,5.);
#99=VERTEX_POINT('',#272);
#100=VERTEX_POINT('',#275);
#101=VERTEX_POINT('',#278);
#102=VERTEX_POINT('',#281);
#103=VERTEX_POINT('',#284);
#104=VERTEX_POINT('',#286);
#105=VERTEX_POINT('',#289);
#106=VERTEX_POINT('',#290);
#107=VERTEX_POINT('',#293);
#108=VERTEX_POINT('',#296);
#109=VERTEX_POINT('',#298);
#110=VERTEX_POINT('',#301);
#111=VERTEX_POINT('',#303);
#112=VERTEX_POINT('',#306);
#113=VERTEX_POINT('',#312);
#114=EDGE_CURVE('',#99,#99,#84,.T.);
#115=EDGE_CURVE('',#100,#100,#85,.T.);
#116=EDGE_CURVE('',#101,#101,#86,.T.);
#117=EDGE_CURVE('',#102,#102,#87,.T.);
#118=EDGE_CURVE('',#103,#103,#88,.T.);
#119=EDGE_CURVE('',#104,#104,#89,.T.);
#120=EDGE_CURVE('',#105,#106,#90,.T.);
#121=EDGE_CURVE('',#106,#105,#91,.T.);
#122=EDGE_CURVE('',#107,#107,#92,.T.);
#123=EDGE_CURVE('',#108,#108,#93,.T.);
#124=EDGE_CURVE('',#109,#109,#94,.T.);
#125=EDGE_CURVE('',#110,#110,#95,.T.);
#126=EDGE_CURVE('',#111,#111,#96,.T.);
#127=EDGE_CURVE('',#112,#112,#97,.T.);
#128=EDGE_CURVE('',#113,#113,#98,.T.);
#129=ORIENTED_EDGE('',*,*,#114,.T.);
#130=ORIENTED_EDGE('',*,*,#115,.F.);
#131=ORIENTED_EDGE('',*,*,#114,.F.);
#132=ORIENTED_EDGE('',*,*,#116,.T.);
#133=ORIENTED_EDGE('',*,*,#117,.F.);
#134=ORIENTED_EDGE('',*,*,#116,.F.);
#135=ORIENTED_EDGE('',*,*,#118,.T.);
#136=ORIENTED_EDGE('',*,*,#119,.T.);
#137=ORIENTED_EDGE('',*,*,#120,.T.);
#138=ORIENTED_EDGE('',*,*,#121,.T.);
#139=ORIENTED_EDGE('',*,*,#122,.F.);
#140=ORIENTED_EDGE('',*,*,#123,.T.);
#141=ORIENTED_EDGE('',*,*,#124,.T.);
#142=ORIENTED_EDGE('',*,*,#125,.T.);
#143=ORIENTED_EDGE('',*,*,#126,.T.);
#144=ORIENTED_EDGE('',*,*,#119,.F.);
#145=ORIENTED_EDGE('',*,*,#127,.F.);
#146=ORIENTED_EDGE('',*,*,#121,.F.);
#147=ORIENTED_EDGE('',*,*,#120,.F.);
#148=ORIENTED_EDGE('',*,*,#118,.F.);
#149=ORIENTED_EDGE('',*,*,#124,.F.);
#150=ORIENTED_EDGE('',*,*,#122,.T.);
#151=ORIENTED_EDGE('',*,*,#125,.F.);
#152=ORIENTED_EDGE('',*,*,#123,.F.);
#153=ORIENTED_EDGE('',*,*,#126,.F.);
#154=ORIENTED_EDGE('',*,*,#128,.F.);
#155=ORIENTED_EDGE('',*,*,#128,.T.);
#156=ORIENTED_EDGE('',*,*,#115,.T.);
#157=ORIENTED_EDGE('',*,*,#127,.T.);
#158=ORIENTED_EDGE('',*,*,#117,.T.);
#159=CONICAL_SURFACE('',#178,1.0335,59.);
#160=CONICAL_SURFACE('',#182,1.0335,59.);
#161=ADVANCED_FACE('',(#41),#159,.F.);
#162=ADVANCED_FACE('',(#42,#21),#34,.F.);
#163=ADVANCED_FACE('',(#43),#160,.F.);
#164=ADVANCED_FACE('',(#44,#22),#35,.F.);
#165=ADVANCED_FACE('',(#45,#23),#17,.T.);
#166=ADVANCED_FACE('',(#46,#24),#18,.T.);
#167=ADVANCED_FACE('',(#47,#25),#19,.T.);
#168=ADVANCED_FACE('',(#48,#26),#20,.T.);
#169=ADVANCED_FACE('',(#49,#27),#36,.T.);
#170=ADVANCED_FACE('',(#50,#28),#37,.T.);
#171=ADVANCED_FACE('',(#51,#29),#38,.T.);
#172=ADVANCED_FACE('',(#52,#30),#39,.T.);
#173=ADVANCED_FACE('',(#53,#31),#40,.T.);
#174=ADVANCED_FACE('',(#54,#32),#15,.T.);
#175=ADVANCED_FACE('',(#55,#33),#16,.T.);
#176=CLOSED_SHELL('',(#161,#162,#163,#164,#165,#166,#167,#168,#169,#170,
#171,#172,#173,#174,#175));
#177=AXIS2_PLACEMENT_3D('placement',#270,#208,#209);
#178=AXIS2_PLACEMENT_3D('',#271,#210,#211);
#179=AXIS2_PLACEMENT_3D('',#273,#212,#213);
#180=AXIS2_PLACEMENT_3D('',#274,#214,#215);
#181=AXIS2_PLACEMENT_3D('',#276,#216,#217);
#182=AXIS2_PLACEMENT_3D('',#277,#218,#219);
#183=AXIS2_PLACEMENT_3D('',#279,#220,#221);
#184=AXIS2_PLACEMENT_3D('',#280,#222,#223);
#185=AXIS2_PLACEMENT_3D('',#282,#224,#225);
#186=AXIS2_PLACEMENT_3D('',#283,#226,#227);
#187=AXIS2_PLACEMENT_3D('',#285,#228,#229);
#188=AXIS2_PLACEMENT_3D('',#287,#230,#231);
#189=AXIS2_PLACEMENT_3D('',#288,#232,#233);
#190=AXIS2_PLACEMENT_3D('',#291,#234,#235);
#191=AXIS2_PLACEMENT_3D('',#292,#236,#237);
#192=AXIS2_PLACEMENT_3D('',#294,#238,#239);
#193=AXIS2_PLACEMENT_3D('',#295,#240,#241);
#194=AXIS2_PLACEMENT_3D('',#297,#242,#243);
#195=AXIS2_PLACEMENT_3D('',#299,#244,#245);
#196=AXIS2_PLACEMENT_3D('',#300,#246,#247);
#197=AXIS2_PLACEMENT_3D('',#302,#248,#249);
#198=AXIS2_PLACEMENT_3D('',#304,#250,#251);
#199=AXIS2_PLACEMENT_3D('',#305,#252,#253);
#200=AXIS2_PLACEMENT_3D('',#307,#254,#255);
#201=AXIS2_PLACEMENT_3D('',#308,#256,#257);
#202=AXIS2_PLACEMENT_3D('',#309,#258,#259);
#203=AXIS2_PLACEMENT_3D('',#310,#260,#261);
#204=AXIS2_PLACEMENT_3D('',#311,#262,#263);
#205=AXIS2_PLACEMENT_3D('',#313,#264,#265);
#206=AXIS2_PLACEMENT_3D('',#314,#266,#267);
#207=AXIS2_PLACEMENT_3D('',#315,#268,#269);
#208=DIRECTION('axis',(0.,0.,1.));
#209=DIRECTION('refdir',(1.,0.,0.));
#210=DIRECTION('center_axis',(0.,0.,-1.));
#211=DIRECTION('ref_axis',(-1.,0.,0.));
#212=DIRECTION('center_axis',(0.,0.,-1.));
#213=DIRECTION('ref_axis',(-1.,0.,0.));
#214=DIRECTION('center_axis',(0.,0.,-1.));
#215=DIRECTION('ref_axis',(-1.,0.,0.));
#216=DIRECTION('center_axis',(0.,0.,1.));
#217=DIRECTION('ref_axis',(-1.,0.,0.));
#218=DIRECTION('center_axis',(0.,0.,-1.));
#219=DIRECTION('ref_axis',(-1.,0.,0.));
#220=DIRECTION('center_axis',(0.,0.,-1.));
#221=DIRECTION('ref_axis',(-1.,0.,0.));
#222=DIRECTION('center_axis',(0.,0.,-1.));
#223=DIRECTION('ref_axis',(-1.,0.,0.));
#224=DIRECTION('center_axis',(0.,0.,1.));
#225=DIRECTION('ref_axis',(-1.,0.,0.));
#226=DIRECTION('center_axis',(-1.,0.,0.));
#227=DIRECTION('ref_axis',(0.,1.,0.));
#228=DIRECTION('center_axis',(-1.97215226305253E-33,-0.866025403784439,
-0.5));
#229=DIRECTION('ref_axis',(2.75855020126449E-17,-0.5,0.866025403784439));
#230=DIRECTION('center_axis',(0.,0.,1.));
#231=DIRECTION('ref_axis',(-1.,0.,0.));
#232=DIRECTION('center_axis',(0.,0.499999999993262,-0.866025403788329));
#233=DIRECTION('ref_axis',(0.,0.866025403788329,0.499999999993262));
#234=DIRECTION('center_axis',(0.,0.866025403788329,0.499999999993262));
#235=DIRECTION('ref_axis',(0.,-0.499999999993262,0.866025403788329));
#236=DIRECTION('center_axis',(0.,0.866025403788329,0.499999999993262));
#237=DIRECTION('ref_axis',(0.,-0.499999999993262,0.866025403788329));
#238=DIRECTION('center_axis',(-1.,0.,0.));
#239=DIRECTION('ref_axis',(0.,0.866025403788329,0.499999999993262));
#240=DIRECTION('center_axis',(0.,-0.499999999993262,0.866025403788329));
#241=DIRECTION('ref_axis',(0.,0.866025403788329,0.499999999993262));
#242=DIRECTION('center_axis',(6.12303176911189E-17,0.866025403788329,0.499999999993262));
#243=DIRECTION('ref_axis',(-1.,3.92342595964023E-17,5.45049043643514E-17));
#244=DIRECTION('center_axis',(-1.,0.,0.));
#245=DIRECTION('ref_axis',(0.,0.,1.));
#246=DIRECTION('center_axis',(-1.,0.,0.));
#247=DIRECTION('ref_axis',(0.,1.,0.));
#248=DIRECTION('center_axis',(0.,-0.866025403788329,-0.499999999993262));
#249=DIRECTION('ref_axis',(0.,-0.499999999993262,0.866025403788329));
#250=DIRECTION('center_axis',(0.,0.,1.));
#251=DIRECTION('ref_axis',(2.75855020126449E-17,-1.,0.));
#252=DIRECTION('center_axis',(0.,0.,1.));
#253=DIRECTION('ref_axis',(-1.,0.,0.));
#254=DIRECTION('center_axis',(0.,0.,-1.));
#255=DIRECTION('ref_axis',(-1.,0.,0.));
#256=DIRECTION('center_axis',(0.,0.866025403788329,0.499999999993262));
#257=DIRECTION('ref_axis',(0.,-0.499999999993262,0.866025403788329));
#258=DIRECTION('center_axis',(-1.,0.,0.));
#259=DIRECTION('ref_axis',(0.,0.,1.));
#260=DIRECTION('center_axis',(0.,-0.866025403788329,-0.499999999993262));
#261=DIRECTION('ref_axis',(0.,-0.499999999993262,0.866025403788329));
#262=DIRECTION('center_axis',(0.,0.,1.));
#263=DIRECTION('ref_axis',(-1.,0.,0.));
#264=DIRECTION('center_axis',(0.,0.,-1.));
#265=DIRECTION('ref_axis',(-1.,0.,0.));
#266=DIRECTION('center_axis',(0.,0.,-1.));
#267=DIRECTION('ref_axis',(1.,0.,0.));
#268=DIRECTION('center_axis',(0.,0.,-1.));
#269=DIRECTION('ref_axis',(1.,0.,0.));
#270=CARTESIAN_POINT('',(0.,0.,0.));
#271=CARTESIAN_POINT('Origin',(0.,0.,15.620989449765));
#272=CARTESIAN_POINT('',(-2.067,0.,15.));
#273=CARTESIAN_POINT('Origin',(0.,0.,15.));
#274=CARTESIAN_POINT('Origin',(0.,0.,7.5));
#275=CARTESIAN_POINT('',(-2.067,0.,0.));
#276=CARTESIAN_POINT('Origin',(0.,0.,0.));
#277=CARTESIAN_POINT('Origin',(120.,0.,15.620989449765));
#278=CARTESIAN_POINT('',(117.933,0.,15.));
#279=CARTESIAN_POINT('Origin',(120.,0.,15.));
#280=CARTESIAN_POINT('Origin',(120.,0.,7.5));
#281=CARTESIAN_POINT('',(117.933,0.,0.));
#282=CARTESIAN_POINT('Origin',(120.,0.,0.));
#283=CARTESIAN_POINT('Origin',(120.,17.,7.9));
#284=CARTESIAN_POINT('',(120.,11.,18.2923048454133));
#285=CARTESIAN_POINT('Origin',(120.,8.5,22.6224318643355));
#286=CARTESIAN_POINT('',(125.,-6.12303176911189E-16,7.9));
#287=CARTESIAN_POINT('Origin',(120.,0.,7.9));
#288=CARTESIAN_POINT('Origin',(103.,15.341601,26.572432));
#289=CARTESIAN_POINT('',(120.000000047129,17.8416006898941,22.2423049810052));
#290=CARTESIAN_POINT('',(120.,12.8416006899615,30.9025590188884));
#291=CARTESIAN_POINT('Origin',(120.,15.3416006899278,26.5724319999468));
#292=CARTESIAN_POINT('Origin',(120.,15.3416006899278,26.5724319999468));
#293=CARTESIAN_POINT('',(103.,30.064033,30.0724319998855));
#294=CARTESIAN_POINT('Origin',(103.,30.0640328644016,35.0724319998855));
#295=CARTESIAN_POINT('Origin',(17.,15.341601,26.572432));
#296=CARTESIAN_POINT('',(-6.12303176911189E-16,17.8416009999663,22.2423049810584));
#297=CARTESIAN_POINT('Origin',(0.,15.341601,26.572432));
#298=CARTESIAN_POINT('',(17.,30.064033,30.072432));
#299=CARTESIAN_POINT('Origin',(17.,30.064033,35.072432));
#300=CARTESIAN_POINT('Origin',(-1.37927510063224E-16,17.,7.9));
#301=CARTESIAN_POINT('',(-6.12303176911189E-16,11.0000003100385,18.2923049811116));
#302=CARTESIAN_POINT('Origin',(0.,8.5000003100722,22.6224320000532));
#303=CARTESIAN_POINT('',(5.,-6.12303176911189E-16,7.9));
#304=CARTESIAN_POINT('Origin',(-1.37927510063224E-16,0.,7.9));
#305=CARTESIAN_POINT('Origin',(120.,0.,3.95));
#306=CARTESIAN_POINT('',(125.,-6.12303176911189E-16,0.));
#307=CARTESIAN_POINT('Origin',(120.,0.,0.));
#308=CARTESIAN_POINT('Origin',(120.,11.9208003449639,24.5974319999734));
#309=CARTESIAN_POINT('Origin',(60.,30.064033,35.072432));
#310=CARTESIAN_POINT('Origin',(0.,11.9208006550361,24.5974320000266));
#311=CARTESIAN_POINT('Origin',(0.,0.,3.95));
#312=CARTESIAN_POINT('',(5.,-6.12303176911189E-16,0.));
#313=CARTESIAN_POINT('Origin',(0.,0.,0.));
#314=CARTESIAN_POINT('Origin',(0.,0.,0.));
#315=CARTESIAN_POINT('Origin',(120.,0.,0.));
#316=UNCERTAINTY_MEASURE_WITH_UNIT(LENGTH_MEASURE(0.01),#320,
'DISTANCE_ACCURACY_VALUE',
'Maximum model space distance between geometric entities at asserted c
onnectivities');
#317=UNCERTAINTY_MEASURE_WITH_UNIT(LENGTH_MEASURE(1.E-6),#320,
'DISTANCE_ACCURACY_VALUE',
'Maximum model space distance between geometric entities at asserted c
onnectivities');
#318=(
GEOMETRIC_REPRESENTATION_CONTEXT(3)
GLOBAL_UNCERTAINTY_ASSIGNED_CONTEXT((#316))
GLOBAL_UNIT_ASSIGNED_CONTEXT((#320,#323,#321))
REPRESENTATION_CONTEXT('','3D')
);
#319=(
GEOMETRIC_REPRESENTATION_CONTEXT(3)
GLOBAL_UNCERTAINTY_ASSIGNED_CONTEXT((#317))
GLOBAL_UNIT_ASSIGNED_CONTEXT((#320,#323,#321))
REPRESENTATION_CONTEXT('','3D')
);
#320=(
LENGTH_UNIT()
NAMED_UNIT(*)
SI_UNIT(.MILLI.,.METRE.)
);
#321=(
NAMED_UNIT(*)
SI_UNIT($,.STERADIAN.)
SOLID_ANGLE_UNIT()
);
#322=DIMENSIONAL_EXPONENTS(0.,0.,0.,0.,0.,0.,0.);
#323=(
CONVERSION_BASED_UNIT('degree',#325)
NAMED_UNIT(#322)
PLANE_ANGLE_UNIT()
);
#324=(
NAMED_UNIT(*)
PLANE_ANGLE_UNIT()
SI_UNIT($,.RADIAN.)
);
#325=PLANE_ANGLE_MEASURE_WITH_UNIT(PLANE_ANGLE_MEASURE(0.01745329252),#324);
#326=SHAPE_DEFINITION_REPRESENTATION(#327,#328);
#327=PRODUCT_DEFINITION_SHAPE('',$,#330);
#328=SHAPE_REPRESENTATION('',(#177),#318);
#329=PRODUCT_DEFINITION_CONTEXT('part definition',#334,'design');
#330=PRODUCT_DEFINITION('402750101 Handgriff AL120 gebogen',
'402750101 Handgriff AL120 gebogen',#331,#329);
#331=PRODUCT_DEFINITION_FORMATION('',$,#336);
#332=PRODUCT_RELATED_PRODUCT_CATEGORY(
'402750101 Handgriff AL120 gebogen','402750101 Handgriff AL120 gebogen',
(#336));
#333=APPLICATION_PROTOCOL_DEFINITION('international standard',
'automotive_design',2009,#334);
#334=APPLICATION_CONTEXT(
'Core Data for Automotive Mechanical Design Process');
#335=PRODUCT_CONTEXT('part definition',#334,'mechanical');
#336=PRODUCT('402750101 Handgriff AL120 gebogen',
'402750101 Handgriff AL120 gebogen',$,(#335));
#337=PRESENTATION_STYLE_ASSIGNMENT((#339));
#338=PRESENTATION_STYLE_ASSIGNMENT((#340));
#339=SURFACE_STYLE_USAGE(.BOTH.,#341);
#340=SURFACE_STYLE_USAGE(.BOTH.,#342);
#341=SURFACE_SIDE_STYLE('',(#343));
#342=SURFACE_SIDE_STYLE('',(#344));
#343=SURFACE_STYLE_FILL_AREA(#345);
#344=SURFACE_STYLE_FILL_AREA(#346);
#345=FILL_AREA_STYLE('',(#347));
#346=FILL_AREA_STYLE('',(#348));
#347=FILL_AREA_STYLE_COLOUR('',#349);
#348=FILL_AREA_STYLE_COLOUR('',#350);
#349=COLOUR_RGB('',0.,0.,0.);
#350=COLOUR_RGB('',0.227450980392157,0.227450980392157,0.227450980392157);
ENDSEC;
END-ISO-10303-21;
